Feeder - Comfort In Sound Chords & Tabs

 

Comfort In Sound Chords & Tabs

Feeder Chords & Tabs

Version: 1 Type: Tab 0 ratings
1 star 2 stars 3 stars 4 stars 5 stars
comments

Comfort In Sound Tab

   
charleroi66                  Great song!!!!!!!!

Verse 1
E---3-2-3-2-3--3---5-2-5-2-5-2-5-2--  
B-------------3--3------------------   x10
G-----------------------------------
on the 6th and 10th time do this:
E---5-2-5-2-5-2-5-2-3-2-3-2-3-2-3-2
B----------------------------------

Chorus- might be something like;
E-------------------------------------
B-------------------------------------
G-----------2222-5555-----------------
D-5555-2222-2222-5555- x2
A-5555-2222-0000-3333-----------------
E-3333-0000---------------------------

Verse 2
E---3-2-3-2-3-0-3-0-5-2-5-2-5-2-5-2       x6(words begin on 2nd time round)
B----------------------------------
[ Tab from: http://www.guitartabs.cc/tabs/f/feeder/comfort_in_sound_tab.html ]
on 6th time round go
E---5-2-5-2-5-2-5-2-3-2-3-2-3-2-3-2
B---------------------------------- then chorus, then middle 8

Middle 

E-----------------------------------
B-----------------------------------(listen to it for the pattern)
G-55555-44444-22222-4-5-7-----------
D-55555-44444-22222-4-5-7----------- x2
A-33333-22222-00000-2-3-5-----------
E-----------------------------------

Verse 3
repeat it but for just 4(drums begin on second and lyrics right away)

Then chorus
Then outro:
E-3-2-3-2-3-0-3-0-5-2-5-2-5-2-5-2-5-2/--3-2-3-2-3-0-3-0-5-2-5-2-5-2-5-2-5-2-5-2-5-2
B-----------------------------------/---------------------------------------------

SONG ORDER
Verse1
Chorus 1
Verse 2
Chorus 2
Middle 
Verse3
Chorus 3
Outro

If any of you can correct or add to it plz do

charleroi66@hotmail.com
Comments