Feeder - Comfort In Sound Chords & Tabs

 

Comfort In Sound Chords & Tabs

Feeder Chords & Tabs

Version: 1 Type: Bass Tab 0 ratings
1 star 2 stars 3 stars 4 stars 5 stars
comments

Comfort In Sound Bass Tab

Feeder - Comfort in Sound

intro 
G --------------------------------------------------------------------
D --------------------------------------------------------------------
A ---3-3-3-3-------5-5-5-5-5-5-5-5--3-3-3-3-----------5-5-5-5-5-5-5-5-
E ----------3-3-3-3------------------------3-3-3-3--------------------

we fall right in and suffer the sins, try to pull things round when the air starts to thin
G --------------------------------------------------------------------
D --------------------------------------------------------------------
A ---3-3-3-3--------5-5-5-5-5-5-5-5--3-3-3-3----------5-5-5-5-5-5-5-5-
E ----------3-3-3-3-------------------------3-3-3-3-------------------

we nurse regrets, restricted in our own belief, a new disease
G --------------------------------------------------------------------
D --------------------------------------------------------------------
A ---3-3-3-3-------5-5-5-5-5-5-5-5--------------------3-3-3-3-3-3-3-3-
E ----------3-3-3-3-----------------5-5-5-5-5-5-5-5-------------------

we shake new hands, the victims of fate, we tread new ground misfortune conveys
G --------------------------------------------------------------------
D --------------------------------------------------------------------
A ---3-3-3-3-------5-5-5-5-5-5-5-5--3-3-3-3-----------5-5-5-5-5-5-5-5-
E ----------3-3-3-3-------------------------3-3-3-3-------------------

you tear yourself apart, wishing to be born again, a different man
G --------------------------------------------------------------------
D --------------------------------------------------------------------
A ---3-3-3-3--------5-5-5-5-5-5-5-5-------------------3-3-3-3-3-3-3-3-
E ----------3-3-3-3----------------5-5-5-5-5-5-5-5--------------------

comfort in sound, itís all around, ease back the strain, come heal your pain
G --------------------------------------------------------------------
D --------------------------------------------------------------------
A ---3-3-3-3--7-7-7-7-----------------3-3-3-3----------5-5-5-5--------
E -------------------3-3-3-3--5-5-5-5--------3-3-3-3----------5-5-5-5-

comfort in sound, itís all around you now.......comfort in sound
G -------------------------------------------------------------------------
D -------------------------------------------------------------------------
A ---3-3-3-3-7-7-7-7-----------------3-3-3-3-3-3-3-3-3-3-3-3-3-3-3-3-3-3-3-
E -------------------3-3-3-3--5-5-5-5--------------------------------------

G --------------------------------------------------------------------
D --------------------------------------------------------------------
A ---3-3-3-3--------5-5-5-5-5-5-5-5--3-3-3-3-----------5-5-5-5-5-5-5-5
E ----------3-3-3-3-------------------------3-3-3-3-------------------

we suffer love together as one, an empty heart with nowhere to turn
G --------------------------------------------------------------------
D --------------------------------------------------------------------
A ---3-3-3-3-------5-5-5-5-5-5-5-5--3-3-3-3-----------5-5-5-5-5-5-5-5-
E ----------3-3-3-3-------------------------3-3-3-3-------------------
[ Tab from: http://www.guitartabs.cc/tabs/f/feeder/comfort_in_sound_btab.html ]
we find ourselves, looking back another way, a brand new day
G --------------------------------------------------------------------
D --------------------------------------------------------------------
A ---3-3-3-3--------5-5-5-5-5-5-5-5-------------------3-3-3-3-3-3-3-3-
E ----------3-3-3-3-----------------5-5-5-5-5-5-5-5-------------------

comfort in sound, itís all around, ease back the strain, come heal your pain
G --------------------------------------------------------------------
D --------------------------------------------------------------------
A ---3-3-3-3--7-7-7-7------------------3-3-3-3-------5-5-5-5----------
E --------------------3-3-3-3--5-5-5-5--------3-3-3-3--------5-5-5-5--

comfort in sound, itís all around you now.......yeah
G -------------------------------------------------------------------------
D -------------------------------------------------------------------------
A ---3-3-3-3--7-7-7-7----------------3-3-3-3-3-3-3-3-3-3-3-3-3-3-3-3-3-3-3-
E -------------------3-3-3-3--5-5-5-5--------------------------------------

solo
G --------------------------------------------------------------------
D --------------------------------------------------------------------
A ---7-7-7-7-7-7-7-7--5-5-5-5-5-5-5-5---------------------------------
E -----------------------------------5-5-5-5-5-5-5-5-5-5-5-5-5-5-5-5--

yeah
G ---------------------------------------------------------------------
D ---------------------------------------------------------------------
A ---7-7-7-7-7-7-7-7-------------------5-------------------------------
E -------------------7-7-7-7-7-7---------5-5-5-5-5-5-5-5-5-5-5-5-5-5-5-

solution gone, emotions ablaze, a life so strong, just faded away
G --------------------------------------------------------------------
D --------------------------------------------------------------------
A ---3-3-3-3--------5-5-5-5-5-5-5-5--3-3-3-3----------5-5-5-5-5-5-5-5-
E ----------3-3-3-3--------------------------3-3-3-3------------------

you find yourself, searching for a quick release, a new belief
G --------------------------------------------------------------------
D --------------------------------------------------------------------
A ---3-3-3-3-------5-5-5-5-5-5-5-5--------------------3-3-3-3-3-3-3-3-
E ----------3-3-3-3----------------5-5-5-5-5-5-5-5--------------------

comfort in sound, itís all around, ease back the strain, come heal your pain
G --------------------------------------------------------------------
D --------------------------------------------------------------------
A ---3-3-3-3--7-7-7-7------------------3-3-3-3-------5-5-5-5----------
E --------------------3-3-3-3--5-5-5-5--------3-3-3-3---------5-5-5-5-

comfort in sound, itís all around you now.......comfort in sound
G -------------------------------------------------------------------------
D -------------------------------------------------------------------------
A ---3-3-3-3--7-7-7-7----------------3-3-3-3-3-3-3-3-3-3-3-3-3-3-3-3-3-3-3-
E -------------------3-3-3-3--5-5-5-5--------------------------------------

outro (same as intro)
G --------------------------------------------------------------------
D --------------------------------------------------------------------
A ---3-3-3-3---------5-5-5-5-5-5-5-5--3-3-3-3---------5-5-5-5-5-5-5-5-
E -----------3-3-3-3--------------------------3-3-3-3-----------------
Comments