Feeder - Come Back Around Chords & Tabs

 

Come Back Around Chords & Tabs

Feeder Chords & Tabs

Version: 2 Type: Tab 0 ratings
1 star 2 stars 3 stars 4 stars 5 stars
comments

Come Back Around Tab

   
FEEDER - COME BACK AROUND

Tabbed by Tom Stead

Hey people! This is such a great song by Feeder, and heres my tab for it. Happy strumming.

INTRO AND VERSE

Play D5, C5 clean then cram on distortion for F5 and G5

E---------------------------
B---------------------------
G-7------5------------------    
D-7------5------3-----5-----
A-5(X14)-3(X14)-1(X8)-5(X8)-
E-5------3------1-----3-----


PRE-CHORUS

E--------------------
B--------------------
G-5-6-5-6-5-6-5-6----		
D-----------------4-6
A--------------------
E--------------------

CHORUS
[ Tab from: http://www.guitartabs.cc/tabs/f/feeder/come_back_around_tab_ver_2.html ]
E---------------------------------------
B---------------------------------------
G-777/5555555-10101010------------------	
D-777/5555555-10101010-33333333-55555555
A-555/3333333-8 8 8 8 -33333333-55555555
E-555/3333333-8 8 8 8 -11111111-33333333

INTERLUDE

E-------------		------------------
B-------------		------------------
G------------5		-55555555-33333333
D-2-3-5-66-7-5 X2   then-55555555-33333333    X2
A-2-3-5-66-7-3		-33333333-11111111
E-0-1-3-44-5-3		-33333333-11111111


OUTRO - at end of the chorus play this

E----------
B----------
G----------
D-3333-5555
A-3333-5555
E-1111-3333


SONG ORDER

VERSE X3
PRE CHORUS X2
CHORUS X2
VERSE X3
PRE CHORUS X2
CHORUS X4
INTERLUDE X1
VERSE X3 - slightly different distortion is 
	   played on all 4 chords 3rd time round
PRE CHORUS X2
CHORUS X4
OUTRO X2
Comments