Feeder - Choke Chords & Tabs

 

Choke Chords & Tabs

Feeder Chords & Tabs

Version: 1 Type: Bass Tab 0 ratings
1 star 2 stars 3 stars 4 stars 5 stars
comments

Choke Bass Tab

   
Artist: Feeder
Song: Choke
Album: Echo Park
Tuning: Standard (E,A,D,G)

Intro:
G:------------------
D:------------------
A:------------------
E:3--1-1----3-1-1/12    (x2)

Verse:
G:---------------------------
D:---3-3-----3-3---3-3----3-3
A:---------------------------
E:3------3-------3-----3-----   (x5)

Pre-Chorus:
G:-------------------
D:-------------------
A:-------------------
E:3--1-1----3--1-1/12   (x2)

Chorus:
G:----------------
D:----------------
A:3333333355551111
E:----------------  (x4)
[ Tab from: http://www.guitartabs.cc/tabs/f/feeder/choke_btab.html ]
Verse:
   (x4)
G:---------------------------
D:---3-3-----3-3---3-3----3-3
A:---------------------------
E:3------3-------3-----3-----
Pre-Chorus:
G:-------------------
D:-------------------
A:-------------------
E:3--1-1----3--1-1/12   (x2)

Chorus:
G:----------------
D:----------------
A:3333333355551111
E:----------------  (x4)

Bridge 1:
G:------------------------------
D:------------------------------
A:-----0-1-2-3-4------0-1-2-3-4-
E:3--1-----------3--1----------- (x2)

Post Bridge:
G:--------------
D:---3-3-----3-3
A:--------------
E:3------3------

Pre-Chorus:
G:-------------------
D:-------------------
A:-------------------
E:3--1-1----3--1-1/12   (x2)

Chorus:
G:----------------
D:----------------
A:3333333355551111
E:----------------  (x8)

Outro:
G:------
D:------
A:------
E:3--1-1
Comments