Feeder - Cant Dance To Disco Chords & Tabs

 

Cant Dance To Disco Chords & Tabs

Feeder Chords & Tabs

Version: 1 Type: Tab 0 ratings
1 star 2 stars 3 stars 4 stars 5 stars
comments

Cant Dance To Disco Tab

Band: Feeder
Song: Can't Dance To Disco
Albumn: Day In Day Out CDS

standard tuning

verse:

E|-----------------------------------------------------|
B|-----------------------------------------------------|
G|-----------------------------------------------------|
D|------2-2---2-2---2-2-2-2------2-2---2-2-2-2-1-1-1-1-|
A|-----------------------------------------------------|
E|--2-2-----2-----2----------2-2-----2-----------------|

E|-----------------------------------------------------|
B|-----------------------------------------------------|
G|-----------------------------------------------------|
D|------2-2---2-2---2-2-2-2------2-2---4-4-4-4-3-3-3-3-|
A|-----------------------------------------------------|
E|--2-2-----2-----2----------2-2-----2-----------------|

repeat as needed
[ Tab from: http://www.guitartabs.cc/tabs/f/feeder/cant_dance_to_disco_tab.html ]
Chorus:
e|-------------------| play this every time before he shouts "DISCO"
B|-------------------|
G|------6666---------|
D|--444-6666-222222--|
A|--444-4444-222222--|
E|--222------000000--|

when he sais"can't dance to disco" play this:
e|---------------------------| 
B|---------------------------|
G|------6666--------44444444-|
D|--444-6666-222222-44444444-|
A|--444-4444-222222-22222222-|
E|--222------000000----------|

listen to the song and you'll get the right rythm

Solo:

E|-----------------------|repeat each bend as needed
B|--7----------9---------|
G|--9b to 11--11b to 13--|
D|-----------------------|
A|-----------------------|
E|-----------------------|

Bridge:

C#5, D5, G5  repeat till next chorus comes.

Outro: play randomly the chorus and the bridge chords(it isn't very clear to understand)

here it is!!great song!
Comments