Feeder - Buck Rogers Chords & Tabs

 

Buck Rogers Chords & Tabs

Feeder Chords & Tabs

Version: 9 Type: Tab 0 ratings
1 star 2 stars 3 stars 4 stars 5 stars
comments

Buck Rogers Tab

this is a gr8 song!!!Any problems contact andymackay2k@hotmail.com
This intro is 110% rite!
E-------------------------------------------   x2
B-------------------------------------------
G-------------------------------------------
D--6--6--6--6--6--6--6--6---6--6--6--7--7--7
A--7--7--7--7--7--7--7--7---6--6--6--7--7--7
E--0--0--0--0--0--0--0--0---4--4--4--5--5--5

Then

E---------------------------------  x2
B--12-12-12-12-11-11-10-10--------
G--9--9--9--9--9--9--9--9---------
D---------------------------------
A---------------------------------
E---------------------------------
[ Tab from: http://www.guitartabs.cc/tabs/f/feeder/buck_rogers_tab_ver_9.html ]
Comments