Feeder - Buck Rogers Chords & Tabs

 

Buck Rogers Chords & Tabs

Feeder Chords & Tabs

Version: 8 Type: Tab 0 ratings
1 star 2 stars 3 stars 4 stars 5 stars
comments

Buck Rogers Tab

I THINK THIS IS 100% CORRECT 
ANY COMMENTS, SUGGESTIONS ETC
MIRANDA.HARDING@BTOPENWORLD.COM
THANKS AND ENJOY!
INTRO (also play through verse)
E|-----------------------------------------
B|-----------------------------------------
G|-----------------------------------------    X2
D|-----------------------------------------
A|--11-11-11-11-11-11-11-11--6-6-6--7-7-7--
E|---0--0--0--0--0--0--0--0--4-4-4--5-5-5--

Verse
E|-----12----12----12----12---12----12----12----12--
B|--12----12----12----12---11----11----10----10-----
G|--------------------------------------------------    X4
D|--------------------------------------------------
A|--------------------------------------------------
E|--------------------------------------------------

E|----------------------------------
B|----------------------------------
G|----------------------------------    X2
D|--2-2-2-2-2-2-2-2--6-6-6--7-7-7---   
A|--2-2-2-2-2-2-2-2--6-6-6--7-7-7---
E|--0-0-0-0-0-0-0-0--4-4-4--5-5-5---

CHORUS
E|---------------------------------------
B|---------------------------------------
G|----------------------2-2-2-2-2-2-2-2--
D|--9-9-9-9-9-9-9-9--7-------------------
A|--9-9-9-9-9-9-9-9--7-------------------
E|--7-7-7-7-7-7-7-7--5-------------------

E|------------------------------------
B|------------------------------------
G|------------------------------------
D|--2-2-2-2-2-2-2-2--9-9-9-9-9-9-9-9--
A|--2-2-2-2-2-2-2-2--9-9-9-9-9-9-9-9--
E|--0-0-0-0-0-0-0-0--7-7-7-7-7-7-7-7--
[ Tab from: http://www.guitartabs.cc/tabs/f/feeder/buck_rogers_tab_ver_8.html ]
E|--------------------------------------------
B|--------------------------------------------
G|--------------------------------------------
D|--11-11-11-11-11-11-11-11--7-7-7-7-7-7-7-7--
A|--11-11-11-11-11-11-11-11--7-7-7-7-7-7-7-7--
E|---9--9--9--9--9--9--9--9--5-5-5-5-5-5-5-5--

E|------------------------------------------------------------------
B|------------------------------------------------------------------
G|------------------------------------------------------------------
D|-2-2-2-2-2-2-2-2-9-9-9-9-9-9-9-9-7-7-7-7-7-7-7-7-7-7-7-7-7-7-7-7--
A|-2-2-2-2-2-2-2-2-9-9-9-9-9-9-9-9-7-7-7-7-7-7-7-7-7-7-7-7-7-7-7-7--
E|-0-0-0-0-0-0-0-0-7-7-7-7-7-7-7-7-5-5-5-5-5-5-5-5-5-5-5-5-5-5-5-5--

E|-----------------------------------
B|------------------4--4--5--5--5----
G|------------------6b-6b-7b-7b-7b---
D|-2-2-2-2-2-2-2-2-------------------
A|-2-2-2-2-2-2-2-2-------------------
E|-0-0-0-0-0-0-0-0-------------------

REPEAT VERSE X1 AND CHORUS x2
THEN PLAY
E|-------------------------
B|-------------------------
G|-------------------------
D|-2-2-2-2-2-2--6--7-7-7---      x2
A|-2-2-2-2-2-2--6--7-7-7---
E|-0-0-0-0-0-0--4--5-5-5---

E|--------------------------------------------------------------
B|--------------------------------------------------------------
G|-13-13-13-11-11-11-8-8-8-6-6-6-13-13-13-11-11-11-8-8-8-9-9-9--
D|--X--X--X--X--X--X-X-X-X-X-X-X--X--X--X--X--X--X-X-X-X-X-X-X--
A|-11-11-11--9--9--9-6-6-6-4-4-4-11-11-11--9--9--9-6-6-6-7-7-7--
E|--------------------------------------------------------------

REPEAT CHORUS X2
THEN PLAY
E|-----------------------------------
B|------------------4--4--5--5--5----
G|------------------6b-6b-7b-7b-7b---
D|-----------------------------------
A|-2-2-2-2-2-2-2-2-------------------
E|-0-0-0-0-0-0-0-0-------------------

END
Comments