Feeder - Buck Rogers Chords & Tabs

 

Buck Rogers Chords & Tabs

Feeder Chords & Tabs

Version: 11 Type: Tab 0 ratings
1 star 2 stars 3 stars 4 stars 5 stars
comments

Buck Rogers Tab

the intro is bass.

verse:
e---5---5---5---5---4---4---0--0-----
B-----5---5---5---5---4---4---0---0--
G------------------------------------
D---------------------------------(x4)
A------------------------------------
E------------------------------------


riff 2 (player, player, player.....):
e--------------------------------------
B--------------------------------------
G--------------------------------------
D---2-2-2-2-2-2-2-2-2-6-6-6-/-7-7-7-7--
A---2-2-2-2-2-2-2-2-2-6-6-6-/-7-7-7-7--
E---0-0-0-0-0-0-0-0-0-4-4-4-/-5-5-5-5--

"and i don't wanna talk..."
e------------------------
B------------------------      
G------------------------
D---9-9-9-9-9-9-9-9--7---
A---9-9-9-9-9-9-9-9--7---    (let ring the last chord)
E---7-7-7-7-7-7-7-7--5---

"i think were..."
e--------------------
B--------------------
G---4-4-4-4-4-4-4-4--
D--------------------
A--------------------
E--------------------

chorus:
e--------------------------------------------------------------------------
B--------------------------------------------------------------------------
G--------------------4-4-4-4-4-4-4-4-4-------------------------------------
D---2-2-2-2-2-2-2-2--4-4-4-4-4-4-4-4-4--6-6-6-6-6-6-6-6--7-7-7-7-7-7-7-7---
A---2-2-2-2-2-2-2-2--2-2-2-2-2-2-2-2-2--6-6-6-6-6-6-6-6--7-7-7-7-7-7-7-7---
E---0-0-0-0-0-0-0-0---------------------4-4-4-4-4-4-4-4--5-5-5-5-5-5-5-5---
[ Tab from: http://www.guitartabs.cc/tabs/f/feeder/buck_rogers_tab_ver_11.html ]
e------------------------------------------------------------------------
B------------------------------------------------------------------------
G--------------------4-4-4-4-4-4-4-4--2-2-2-2-2-2-2-2-2-2-2-2-2-2-2-2-2--
D---2-2-2-2-2-2-2-2--4-4-4-4-4-4-4-4--2-2-2-2-2-2-2-2-2-2-2-2-2-2-2-2-2--
A---2-2-2-2-2-2-2-2--2-2-2-2-2-2-2-2--0-0-0-0-0-0-0-0-0-0-0-0-0-0-0-0-0--
E---0-0-0-0-0-0-0-0------------------------------------------------------

brigde 1 (he's got a brand new car):
e--------------------------------------
B--------------------------------------
G--------------------------------------
D---4-4-4-4-4-4--6-/-7--7-7-7-7-7-7-7--(x2)
A---4-4-4-4-4-4--6-/-7--7-7-7-7-7-7-7--
E---2-2-2-2-2-2--4-/-5--5-5-5-5-5-5-5--

bridge 2 (a brand new car...)
e---4-4-4-4-2-2-2-2-----------------4-4-4-4-2-2-2-2--------------------
B-------------------4-4-4-4-2-2-2-2-----------------4-4-4-4-5-5-5-5-5--
G----------------------------------------------------------------------
D----------------------------------------------------------------------
A----------------------------------------------------------------------
E----------------------------------------------------------------------

e---4-4-4-4-2-2-2-2-----------------4-4-4-4-2-2-2-2---------------------
B-------------------4-4-4-4-2-2-2-2-------------------------------------
G-----------------------------------------------------------------------
D----------------------------------------------------6-6-6-6-6-6-6-6-6--
A----------------------------------------------------6-6-6-6-6-6-6-6-6--
E----------------------------------------------------4-4-4-4-4-4-4-4-4--

(reapeat riff 2 twice here)


finish with the chours twice followed by:
e----------------------------------------
B----------------------------------------
G----------------------------------------
D---2-2-2-2-2-2-2-2-2--6-6--6-/-7-7-7-7--
A---2-2-2-2-2-2-2-2-2--X-X--X-/-X-X-X-X--
E---0-0-0-0-0-0-0-0-0--4-4--4-/-5-5-5-5--
Comments