Feeder - Buck Rogers Chords & Tabs

 

Buck Rogers Chords & Tabs

Feeder Chords & Tabs

Version: 3 Type: Bass Tab 0 ratings
1 star 2 stars 3 stars 4 stars 5 stars
comments

Buck Rogers Bass Tab

   
Artist - Feeder
Song - Buck Rogers
Album - Echo Park (April 2001) - Echo
Bassist - Taka Hirose
Notes - Standard Tuning [EADG]
Tabbed By - Oriol [uri_13_@hotmail.com]

~ --> let ring

No bass in intro (He's got a brand new car...)

Verse (00:23 - Player, player...)

G:--------------------|
D:--------------------|
A:--------------------|
E:-0000000004445555---|  x2

G:-------------|
D:-------------|
A:-------------|
E:-7777777775~-

Chorus (00:37 - I think we're gonna make it...)

G:-----------------------------------------------------------------------|
D:-----------------------------------------------------------------------|
A:-----------------------------------------------------------------------|
E:-0000000077777777999999995555555500000000777777775555555555555555------|

G:---------------------|
D:---------------------|
A:----7---7------------|
E:--00-000-004445555---|

G:---------------------|
D:---------------------|
A:----7---7------------|
E:--00-000-004445555---|

Take a rest (01:01 - We'll start over again...)

Verse (01:17 - Lemon, lemon...)

G:--------------------|
D:--------------------|
A:--------------------|
E:-0000000004445555---|  x2

G:-------------|
D:-------------|
A:-------------|
E:-7777777775~-

Chorus (01:31 - I think we're gonna make it...)

G:-----------------------------------------------------------------------|
D:-----------------------------------------------------------------------|
A:-----------------------------------------------------------------------|
E:-0000000077777777999999995555555500000000777777775555555555555555------|

G:-----------------------------------------------------------------------|
D:-----------------------------------------------------------------------|
A:-----------------------------------------------------------------------|
E:-000000007777777799999999555555550000000077777777555555555551212121212-

Bridge (02:03 - He's got a brand new car...)
[ Tab from: http://www.guitartabs.cc/tabs/f/feeder/buck_rogers_btab_ver_3.html ]
G:---------------------------------|
D:---------------------------------|
A:---------------------------------|
E:-2222-4-5-8888888-2222-4-5555555-|

G:-13-13-13--11-11-11-11-11---------------------------|
D:---------------------------13-13-13--11-11-11-11-11-|
A:----------------------------------------------------|
E:----------------------------------------------------|

G:-13-13-13--11-11-11-11-11---------------------------|
D:---------------------------13-13-13--14-14-14-14-14-|
A:----------------------------------------------------|
E:----------------------------------------------------|

G:-13-13-13--11-11-11-11-11---------------------------|
D:---------------------------13-13-13--11-11-11-11-11-|
A:----------------------------------------------------|
E:----------------------------------------------------|

G:-13-13-13--11-11-11-11-11-|
D:--------------------------|
A:--------------------------|
E:--------------------------|

After bridge (2:25)

G:------------------------|
D:------------------------|
A:-77777777\14/7----------|
E:------------------------|

Verse (02:27 - Buck rogers...)
G:---------------------|
D:---------------------|
A:----7---7------------|
E:--00-000-004445555---| x2

Chorus (02:34 - I think we're gonna make it..)

G:-----------------------------------------------------------------------|
D:-----------------------------------------------------------------------|
A:-----------------------------------------------------------------------|
E:-0000000077777777999999995555555500000000777777775555555555555555------|

G:-----------------------------------------------------------------------|
D:-----------------------------------------------------------------------|
A:-----------------------------------------------------------------------|
E:-000000007777777799999999555555550000000077777777555555555551212121212-

Outro (03:06)

G:-----------------|
D:-----------------|
A:----7---7--------|
E:--00-000-0044455-|
Comments