Feeder - Buck Rogers Chords & Tabs

 

Buck Rogers Chords & Tabs

Feeder Chords & Tabs

Version: 2 Type: Bass Tab 0 ratings
1 star 2 stars 3 stars 4 stars 5 stars
comments

Buck Rogers Bass Tab

   
Artist: 	Feeder
Album:  	Echo Park
Title:		Buck Rogers
Tabbed By:  	Adam Curtis

This Tab is 100% correct, I play this in my band every week, and it sounds perfect

Only uses E string

G|--------------------------------|
D|--------------------------------|
A|--------------------------------|           
E|-0-0-0-0-0-0-0-0-0-4-4-4-5-5-5-5|

Verse

G|--------------------------------|
D|--------------------------------|
A|--------------------------------|           x4         
E|-0-0-0-0-0-0-0-0-0-4-4-4-5-5-5-5|

Bridge (player/lemon)

G|--------------------------------|
D|--------------------------------|
A|--------------------------------|           x2       
E|-0-0-0-0-0-0-0-0-0-4-4-4-5-5-5-5|

                   
G|--------------------------------|
D|--------------------------------|
A|--------------------------------|               
E|-7-7-7-7-7-7-7-7-5--------0/12\0|

Chorus

G|---------------------------------------------------------------|
D|---------------------------------------------------------------|
A|---------------------------------------------------------------|
E|0-0-0-0-0-0-0-0-7-7-7-7-7-7-7-7-9-9-9-9-9-9-9-9-5-5-5-5-5-5-5-5|
[ Tab from: http://www.guitartabs.cc/tabs/f/feeder/buck_rogers_btab_ver_2.html ]
G|---------------------------------------------------------------|
D|---------------------------------------------------------------|
A|---------------------------------------------------------------|
E|0-0-0-0-0-0-0-0-7-7-7-7-7-7-7-7-5-5-5-5-5-5-5-5-5-5-5-5-5-5-5-5|

Link

G|--------------------------------|
D|--------------------------------|
A|--------------------------------|           x2       
E|-0-0-0-0-0-0-0-0-0-4-4-4-5-5-5-5|

Verse

Chorus x2

Middle bit

G|--------------------------------|
D|--------------------------------|
A|--------------------------------|
E|2-2-2-2-2-4----5-5-5-5-8-8-8-8--|

G|--------------------------------|
D|--------------------------------|
A|--------------------------------|
E|2-2-2-2-2-4----5-5-5-5-5-5-5-5--|

G|--------------------------------|
D|--------------------------------|
A|--------------------------------|            x4
E|0-0-0-0-0-0-0-0-0-0-0-0-0-0-0-0-|

G|--------------------------------|
D|--------------------------------|
A|--------------------------------|            x2
E|-0-0-0-0-0-0-0-0-0-4-4-4-5-5-5-5|

Chorus x2

End

G|----------------------------|
D|----------------------------|
A|----------------------------|
E|-0-0-0-0-0-0-0-0-0-4-4-4-5-5|


Thanks
Comments