Feeder - Buck Rogers Chords & Tabs

 

Buck Rogers Chords & Tabs

Feeder Chords & Tabs

Version: 1 Type: Bass Tab 0 ratings
1 star 2 stars 3 stars 4 stars 5 stars
comments

Buck Rogers Bass Tab

   
Title        : Buck Rogers
Artist       : Feeder
Tabbed by    : Matt Girling ( matt.girling@btinternet.com )
Written for  : Joe Gale


Intro

G|--------------------------------|
D|--------------------------------|
A|-------------------------0-0-0-0|           
E|-0-0-0-0-0-0-0-0-0-4-4-4--------|

Verse

G|--------------------------------|
D|--------------------------------|
A|-------------------------0-0-0-0|           x4         
E|-0-0-0-0-0-0-0-0-0-4-4-4--------|

Bridge (player/lemon)

G|--------------------------------|
D|--------------------------------|
A|-------------------------0-0-0-0|           x2       
E|-0-0-0-0-0-0-0-0-0-4-4-4--------|

                   
G|--------------------------------|
D|--------------------------------|
A|-2-2-2-2-2-2-2-2-0--------------|               
E|--------------------------0/12\0|

Chorus

G|---------------------------------------------------------------|
D|---------------------------------------------------------------|
A|----------------2-2-2-2-2-2-2-2-4-4-4-4-4-4-4-4-0-0-0-0-0-0-0-0|
E|0-0-0-0-0-0-0-0------------------------------------------------|
[ Tab from: http://www.guitartabs.cc/tabs/f/feeder/buck_rogers_btab.html ]
G|---------------------------------------------------------------|
D|---------------------------------------------------------------|
A|----------------2-2-2-2-2-2-2-2-0-0-0-0-0-0-0-0-0-0-0-0-0-0-0-0|
E|0-0-0-0-0-0-0-0------------------------------------------------|

Link

G|--------------------------------|
D|--------------------------------|
A|-------------------------0-0-0-0|           x2       
E|-0-0-0-0-0-0-0-0-0-4-4-4--------|

Verse

Chorus x2

Middle bit

G|--------------------------------|
D|--------------------------------|
A|---------------0-0-0-0--3-3-3-3-|
E|2-2-2-2-2-4---------------------|

G|--------------------------------|
D|--------------------------------|
A|---------------0-0-0-0-0-0-0-0--|
E|2-2-2-2-2-4---------------------|

G|--------------------------------|
D|--------------------------------|
A|--------------------------------|            x4
E|0-0-0-0-0-0-0-0-0-0-0-0-0-0-0-0-|

G|--------------------------------|
D|--------------------------------|
A|-------------------------0-0-0-0|            x2
E|-0-0-0-0-0-0-0-0-0-4-4-4--------|

Chorus x2

End

G|----------------------------|
D|----------------------------|
A|-------------------------0-0|
E|-0-0-0-0-0-0-0-0-0-4-4-4----|

===============================================
                  _____    _____      _     _               _
 |\  |\     |\      |        |       /   | | | |   | |\ |  /
 | \ | \    |_\     |        |      |  _ | |/  |   | | \| |  _
 |  \|  \   |  \    |        |       \_| | |\  |_  | |  |  \_|

Comments