Feeder - Bruised Chords & Tabs

 

Bruised Chords & Tabs

Feeder Chords & Tabs

Version: 1 Type: Tab 0 ratings
1 star 2 stars 3 stars 4 stars 5 stars
comments

Bruised Tab

   
Band: Feeder
Song: Bruised
Album: Feeling A Moment CDS

i took this tab from www.feederweb.com.
i'll post it here but with some changes

Gtr1: Capo 4th Fret
Gtr2: Standard

Chords:

e|-0--3--0---1---0-----------------------|
B|-1--3--1---1---2-----------------------|
G|-0--0--2---2---3----5----9-------4-----|
D|-2--0--2---3---0----5----9---5---4---3-|
A|-3--2--0---3---x----3----6---5---2---3-|
E|-x--3--x---1---x-------------3-------1-|
   C  G  Am  F Dsus2  C5  Eb5  G5  B5 F5

Intro:

gtr1: play these chords

      C  G  Am  F x3 

      then  Dsus2  F

Gtr2:

e|---------------------------------------------------|
B|---------------------------------------------------|
G|--9-9-9-9-9----8-8-8-8-8----6-6-6-6-6----4-4-4-4-4-|
D|---------------------------------------------------|
A|--7-7-7-7-7----6-6-6-6-6----4-4-4-4-4----2-2-2-2-2-|
E|---------------------------------------------------|

e|------------------------------------------------------|
B|------------------------------------------------------|
G|--9-9-9-9-9----8-8-8-8-8----9-9-9-9-9-----11-11-11-11-|
D|------------------------------------------------------|
A|--7-7-7-7-7----6-6-6-6-6----7-7-7-7-7-----9--9--9--9--|
E|------------------------------------------------------|
[ Tab from: http://www.guitartabs.cc/tabs/f/feeder/bruised_tab.html ]
e|---------------------------------------------------|
B|---------------------------------------------------|
G|--13-13-13---11-11-11-11----14-14-14---13-13-13-13-|
D|---------------------------------------------------|
A|--11-11-11---9--9--9--9-----12-12-12---11-11-11-11-|
E|---------------------------------------------------|

e|--------------------------------------------|
B|--------------------------------------------|
G|--11-11-11-11-11-11-------9-9-9-9-9-9-9-9-9-|
D|--------------------------------------------|
A|--9--9--9--9--9--9--------7-7-7-7-7-7-7-7-7-|
E|--------------------------------------------|


Verse: gtr1 just plays the F chord over and over
       when grant sings "How do you feel", gtr1 plays the C chord
              while gtr2 plays:

e|---------------------------------------------------|x2
B|---------------------------------------------------|
G|--13-13-13---11-11-11-11----14-14-14---13-13-13-13-|
D|---------------------------------------------------|
A|--11-11-11---9--9--9--9-----12-12-12---11-11-11-11-|
E|---------------------------------------------------|


Pre-Chorus: gtr1 plays quickly a G chord then continues playing F
            while gtr2 plays:

e|---------------------------------------------------|
B|---------------------------------------------------|
G|--9-9-9-9-9----8-8-8-8-8----6-6-6-6-6----4-4-4-4-4-|
D|---------------------------------------------------|
A|--7-7-7-7-7----6-6-6-6-6----4-4-4-4-4----2-2-2-2-2-|
E|---------------------------------------------------|

Chorus: same as intro

Bridge: gtr1 plays these chords(there r many background effects)

C5  Eb5  G5  B5 
C5  Eb5  G5  F5 
repeat twice


Song Progression:

intro
verse
pre-chorus
chorus
intro
verse
pre-chorus
chorus (repeat twice the last part)
bridge
verse
pre-chorus
chorus (repeat twice the last part)

end on C

not perfect but sounds very good to me!
amazing song!rate :P
Comments