Feeder - Bitter Glass Chords & Tabs

 

Bitter Glass Chords & Tabs

Feeder Chords & Tabs

Version: 1 Type: Tab 0 ratings
1 star 2 stars 3 stars 4 stars 5 stars
comments

Bitter Glass Tab

   
Song: Bitter Glass
Band: Feeder
Album: Pushing The Senses

Standard Tuning

capo 4th fret

notes & chords r relative to capo

gtr 1:intro & verse
   Em                              C
e|-----------------------------------------------------------------|
B|-------1-----------------1-------------1-----------------1-------|
G|---0-0-0-----------0-0-0-0-------0-0-0-0-----------0-0-0-0-------|
D|-2-2-2-2-2-2-2-2-2-2-2-2-2-2-2-2-2-2-2-2-2-2-2-2-2-2-2-2-2-2-2-2-|
A|-2-2-2-2-2-2-2-2-2-2-2-2-2-2-2-2-3-3-3-3-3-3-3-3-3-3-3-3-3-3-3-3-|
E|-----------------------------------------------------------------|
then
   Am                              C
e|-----------------------------------------------------------------|
B|-------1-----------------1-------------1-----------------1-------|
G|-0-0-0-0-----------0-0-0-0-------0-0-0-0-----------0-0-0-0-------|
D|-2-2-2-2-2-2-2-2-2-2-2-2-2-2-2-2-2-2-2-2-2-2-2-2-2-2-2-2-2-2-2-2-|
A|-0-0-0-0-0-0-0-0-0-0-0-0-0-0-0-0-3-3-3-3-3-3-3-3-3-3-3-3-3-3-3-3-|
E|-----------------------------------------------------------------|

gtr2:play these riffs over the intro & the verse
[ Tab from: http://www.guitartabs.cc/tabs/f/feeder/bitter_glass_tab.html ]
e|--3-2------|x2
B|------0-0--|
G|-----------|
D|-----------|
A|-----------|
E|-----------|
then
e|--3-2--5--|
B|----------|
G|----------|
D|----------|
A|----------|
E|----------|

gtr1:chorus
   C5            E5           D5           C5
e|------------------------------------------------------|
B|------------------------------------------------------|
G|-5555555555555/999999999999\777777777777\555555555555-|
D|-xxxxxxxxxxxxx-xxxxxxxxxxxx-xxxxxxxxxxxx-xxxxxxxxxxxx-|
A|-3333333333333/777777777777\555555555555\333333333333-|
E|------------------------------------------------------|

gtr2: play these riffs at the 2nd chorus(listen carefully to get 
which 1 you have to play)

e|-8-8-8-7----|
B|----------8-|
G|------------|
D|------------|
A|------------|
E|------------|

e|-10-10-10-9-8-|
B|--------------|
G|--------------|
D|--------------|
A|--------------|
E|--------------|

gtr1:bridge:same as chorus


Play in this order:

Intro x2
Verse x3
chorus
verse x3
chorus x3 (at the 2nd time gtr2 comes in)
verse x3
bridge
chorus x3 (at the 2nd time gtr2 comes in)
end on c5

that's 1 of my favourite songs in the album.
hope it's right! rate =)
Comments