Feeder - 7 Days In The Sun Chords & Tabs

 

7 Days In The Sun Chords & Tabs

Feeder Chords & Tabs

Version: 2 Type: Tab 0 ratings
1 star 2 stars 3 stars 4 stars 5 stars
comments

7 Days In The Sun Tab

   
feeder, 7 days in the sun.
Tabbed by richard shearer, rchardshearer@katamail.com.
  
Artist: Feedewr
Song: Seven days in the sun
Album: Echo park
Tabbed by: Richard Shearer

Good song but doesn't it remind you a little bit "Smells like teen spirit" by Nirvana? 
Anyway, Feeder forever.
I SADLY COULDN'T FIND THE LYRICS (IF YOU WANNA KNOW THE TRUTH, I DIDN'T WANNA LOOK X THEM), but if you want it, then, send your comments at: richardshearer@katamail.com or check out 
the web site of my band http://www.sorrows.cjb.com

Here comes the tab:

CHRODS: 
G5 355xxx
D5 x577xx
A5 577xxx
C5 x355xx
E5 x799xx

Intro:
     G5  D5  (drums riff)  A5   C5 B5 Bb5  
e------------------------------------------|
B------------------------------------------|
G---------7----------------------5--4--3---|
D-----5---7-----------------7----5--4--3---|
A-----5---5-----------------7----3--2--1---|
E-----3---------------------5--------------|

repeat 2 times

then only music (2x)

then enters the verse
     G5  D5                A5   C5   
e----------------------------------------|
B----------------------------------------|
G---------7----------------------5-------|
D-----5---7-----------------7----5-------|
A-----5---5-----------------7----3-------|
E-----3---------------------5------------|
[ Tab from: http://www.guitartabs.cc/tabs/f/feeder/7_days_in_the_sun_tab_ver_2.html ]
Bridge: (NO DISTORTION)
        D5        D5              E5         E5      
e----------------------------------------------------------|
B----------------------------------------------------------|
G-----------7------------7------------9-----------9--------|
D---------7---7--------7---7--------9---9-------9---9------|
A-------5-------5----5-------5----7-------7---7-------7----|
E----------------------------------------------------------|

THEN CHORUS:
     G5  D5                A5   C5   
e----------------------------------------|
B----------------------------------------|
G---------7----------------------5-------|
D-----5---7-----------------7----5-------|
A-----5---5-----------------7----3-------|
E-----3---------------------5------------|

REPEAT INTRO
     G5  D5  (P A U S E)   A5   C5 B5 Bb5  
e------------------------------------------|
B------------------------------------------|
G---------7----------------------5--4--3---|
D-----5---7-----------------7----5--4--3---|
A-----5---5-----------------7----3--2--1---|
E-----3---------------------5--------------|

repeat 4 times

VERSE 2

BRIDGE (2 TIMES)

CHORUS

middle 8:
repeat verse chords 

middle 8 lyrics:
you will knock me in, you will knock me out.. (etc.)

middle 8 (second part):

 G5           D5                     A5              C5  
   staring through the crowd, it's pulling me underground 
                D5
and it's gone clearer

REPEAT INTRO
     G5  D5  (drums riff)  A5   C5 B5 Bb5  
e------------------------------------------|
B------------------------------------------|
G---------7----------------------5--4--3---|
D-----5---7-----------------7----5--4--3---|
A-----5---5-----------------7----3--2--1---|
E-----3---------------------5--------------|

THEN LAST VERSE: REPEAT VERSE CHORDS WITHOUT DISTORTION (LIKE BRIDGE) 

CHORUS

REPEAT MIDDLE 8 (PART I) 2 TIMES

ENDNG: G5 


 
:: Ultimate Guitar Archive :: 
http://www.ultimate-guitar.com 

Comments