Feeder - 7 Days In The Sun Chords & Tabs

 

7 Days In The Sun Chords & Tabs

Feeder Chords & Tabs

Version: 2 Type: Bass Tab 0 ratings
1 star 2 stars 3 stars 4 stars 5 stars
comments

7 Days In The Sun Bass Tab

   
Artist: Feeder
Song Title: 7 Days In The Sun
Album: Echo Park
Tabbed By: The Blond Girl Of The Video

s= slapped 

Standard E,A,D,G
intro (Bass play like guitar):

      E q E E E q   E E E E q E E   E q E E E q   E E E E E E E E
|---|-------------|---------------|-------------|-----------------|
|-8-|-------------|---------------|-------------|-----------------|
|-8-|-----5-5-5-r-|-r-------------|-----5-5-5-r-|-r---------------|
|---|-3-3---------|---5-5-8-8-7-6-|-3-3---------|---5-5-8-8-8-8-8-|
During the rests wait the Lee's drums solos. I'm not very sure of the rhythm
in the intro... play by ear.

Verse:
      E E E E E E E E  E etc...
|---|-----------------|-----------------|
|-8-|-----------------|-----------------|
|-8-|---------5-5-5-5-|-----------------|
|---|-3-3-3-3---------|-5-5-5-5-8-8-8-8-|
[ Tab from: http://www.guitartabs.cc/tabs/f/feeder/7_days_in_the_sun_btab_ver_2.html ]
Bridge:
      E E E E E E E E  etc...
|---|-----------------|----------------|-----------------|-------------------|
|-8-|-----------------|----------------|-----------------|-------------------|
|-8-|-----------------|----------------|-----------------|-------------------|
|---|-5-5-5-5-5-5-5-5-|-5-5-5-5-5-5-5-5|-8-8-8-8-8-8-8-8-|-8-8-8-8-8-8-8-8-8-|

Chorus:
      h   E E E E   E E E E E E E E 
|---|-------------|-----------------|
|-8-|-------------|-----------------|
|-8-|-s---5-5-5-5-|-----------------|
|---|-3<----------|-5-5-5-5-8-8-8-8-|

Chorus continued like Verse.

Outro ("...staring trough the..."):
      E E E E E E E E   E E E E E E q   E E E E E E q
|---|-----------------|---------------|---------------|
|-8-|-----------------|---------------|---------------|
|-8-|-----------------|-3-3-3-3-3-3-3-|-0-0-0-0-0-0-0-|
|---|-2-2-2-2-3-3-3-3-|---------------|---------------|

Ending like Verse.

Chorus continued...

The end.

Feeder forever!
Comments