Feedback - This Ones For Summer Chords & Tabs

 

This Ones For Summer Chords & Tabs

Feedback Chords & Tabs

Version: 1 Type: Bass Tab 0 ratings
1 star 2 stars 3 stars 4 stars 5 stars
comments

This Ones For Summer Bass Tab

-------------------------------------------------------------------------------
		 This one's for Summer - The Feedback
-------------------------------------------------------------------------------

Tabbed By : txrxexvxoxr

Intro

G|-------------------------------------------------------------------------|
D|-------------------------------------------------------------------------|
A|-------------------------------------------------------------------------|
E|------------------------5-5-5-5-5-5-5-5----------------5-5-5-5-5-5-5-5---|

  |guitar: 77 777 777 777 555555555555555 77 777 777 777 555555555555555|
                         (power chords)

G|-------------------------------------------------------------------------|
D|-------------------------------------------------------------------------|
A|--7-7-7-7-7-7-7-7-5-5-5-5-5-5-5-5-7-7-7-7-7-7-7-7-5-5-5-5-5-5-5-5--------|
E|-------------------------------------------------------------------------|

G|-------------------------------------------------------------------------|
D|-------------------------------------------------------------------------|
A|-------------------------------------------------------------------------|
E|------------------------5-5-5-5-5-5-5-5----------------5-5-5-5-5-5-5-5--3|
                                                                          ^^
  |guitar: 77 777 777 777 555555555555555 77 777 777 777 555555555555555| ^^
                                                                         Hold
                           --about 5 second silence--

Verse

G|-------------------------------------------------------------------------|
D|-------------------------------------------------------------------------|
A|-------------------------------------------------------------------------|
E|--5-5-5-5-5-5-5-5-7-7-7-7-7-7-7-7-5-5-5-5-5-5-5-5-9-9-9-9-9-9-9----------|
                                                                ^^
                                                         Hold, let ring

                       --about 5 second silence--
Chorus

G|-------------------------------------------------------------------------|
D|-------------------------------------------------------------------------|
A|------------------5-5-5-5-5-5-5-5----------------------------------------|
E|--7-7-7-7-7-7-7-7-----------------9-9-9-9-9-9-9-9------------------------|
                                                        ^^^^^^^^^^^^^^^^^^
                                                  |silent while guitars end|
[ Tab from: http://www.guitartabs.cc/tabs/f/feedback/this_ones_for_summer_btab.html ]
                        ---about 5 second silence---
Verse
G|-------------------------------------------------------------------------|
D|-------------------------------------------------------------------------|
A|--10-10-9-9-10-10-9-9-----------------9-9-9-9---------9-9-9-9------------|
E|----------------------9-9-9-9-7-7-7-7---------7-7-7-7---------7-7-7-7----|

G|-------------------------------------------------------------------------|
D|-------------------------------------------------------------------------|
A|--2-2-2-2-2-2-2-2-0-0-0-0-0-0-0-0-5-5-5-5-5-5-5-5-3-3-3-3-3-3-3-3--------|
E|-------------------------------------------------------------------------|

G|-------------------------------------------------------------------------|
D|-------------------------------------------------------------------------|
A|--7-7-7-7-7-7-7-7-9-9-9-9-9-9-9------------------------------------------|
E|--------------------------------7-7-7-7-7-7-7-7-9-9-9-9-9-9-9------------|

                      --about 5 second pause--
Chorus

G|-------------------------------------------------------------------------|
D|-------------------------------------------------------------------------|
A|------------------5-5-5-5-5-5-5-5----------------------------------------|
E|--7-7-7-7-7-7-7-7-----------------9-9-9-9-9-9-9-9------------------------|
                                                        ^^^^^^^^^^^^^^^^^^
                                                  |silent while guitars end|

G|-------------------------------------------------------------------------|
D|-------------------------------------------------------------------------|
A|------------------5-5-5-5-5-5-5-5----------------------------------------|
E|--7-7-7-7-7-7-7-7-----------------9-9-9-9-9-9-9-9------------------------|
                                                        ^^^^^^^^^^^^^^^^^^
                                                  |silent while guitars end|

                             Dont play during slow part

G|-------------------------------------------------------------------------|
D|-------------------------------------------------------------------------|
A|------------------5-5-5-5-5-5-5-5----------------------------------------|
E|--7-7-7-7-7-7-7-7-----------------9-9-9-9-9-9-9-9------------------------|
                                                        ^^^^^^^^^^^^^^^^^^
                                                  |silent while guitars end|

G|-------------------------------------------------------------------------|
D|-------------------------------------------------------------------------|
A|------------------5-5-5-5-5-5-5-5----------------------------------------|
E|--7-7-7-7-7-7-7-7-----------------9-9-9-9-9-9-9-9------------------------|
                                                        ^^^^^^^^^^^^^^^^^^
                                                  |silent while guitars end|
Comments