Feedback - Proverbial Heartbreak Chords & Tabs

 

Proverbial Heartbreak Chords & Tabs

Feedback Chords & Tabs

Version: 1 Type: Bass Tab 0 ratings
1 star 2 stars 3 stars 4 stars 5 stars
comments

Proverbial Heartbreak Bass Tab

   
-------------------------------------------------------------------------
                 Proverbial Heartbreak - The Feedback
-------------------------------------------------------------------------

Tabbed By : txrxexvxoxr
e-mail: 

Tuning: Regular, yo

(Don't play until vovals come in)

Verse

G|-----------------------------------------------------------------------|
D|-----------------------------------------------------------------------|
A|-----------------------------------------------------------------------|
E|--555555555555555-333333333333333-77777777777777-555555555-------------|

I'm beginning to feel pleasure, in knowing it's been worth the while. 
Because tonight, it's for one that your heart will be breaking.

Chorus

G|-----------------------------------------------------------------------|
D|-----------------------------------------------------------------------|
A|-----------------------------------------------------------------------|
E|--333333333333333--5-5-5-5-5-5-5-5-------------------------------------|
                     |   stagger   |
Breaking away, from the two of us

Verse 2

G|-----------------------------------------------------------------------|
D|-----------------------------------------------------------------------|
A|-----------------------------------------------------------------------|
E|--555555555555555-333333333333333-77777777777777-555555555-------------|

You never brought me the happiness I wanted, you never gave me the love 
I deserved. Well have a taste of you're own medicine, don't worry about 
that feeling anymore.
[ Tab from: http://www.guitartabs.cc/tabs/f/feedback/proverbial_heartbreak_btab.html ]
G|-----------------------------------------------------------------------|
D|-----------------------------------------------------------------------|
A|-----------------------------------------------------------------------|
E|--555555555555555-333333333333333-77777777777777-5-\-------------------|
I want to hide away from who, and what I used to love.
So in case you didn't get it the first time, tonight's the night I'm 
leaving you

Chorus

G|-----------------------------------------------------------------------|
D|-----------------------------------------------------------------------|
A|-----------------------------------------------------------------------|
E|--333333333333333--5-5-5-5-5-5-5-5-------------------------------------|
                     |   stagger   |
Breaking away, from the two of us

G|-----------------------------------------------------------------------|
D|-----------------------------------------------------------------------|
A|-----------------------------------------------------------------------|
E|--333333333333333--5-5-5-5-5-5-5-5-------------------------------------|
                     |   stagger   |
Breaking away, from the two of us

Interlude
   
G|-----------------------------------------------------------------------|
D|-----------------------------------------------------------------------|
A|--------------------------------7777777------------------------7777777-|
E|--3333333333333-5555555-7777777---------55555555555555-7777777---------|

G|-----------------------------------------------------------------------|
D|-----------------------------------------------------------------------|
A|--------------------------7777777-------------7~-----------------------|
E|--555555555555555-7777777---------5555555-777--------------------------|

(Slow Part)

G|-----------------------------------------------------------------------|
D|-----------------------------------------------------------------------|
A|-----------------------------------------------------------------------|
E|--5----5---3---3---7---7---555555555-\---------------------------------|

Chorus x4

On 3rd chorus don't play the 333333333333333 part (it's silent there)
only play the stagger 5-5-5-5-5-5-5-5


| /  slide up
| \  slide down
| h  hammer-on
| p  pull-off
| ~  vibrato
| +  harmonic
| x  Mute note
==========================================================================
Comments