Feedback - Insomnia Chords & Tabs

 

Insomnia Chords & Tabs

Feedback Chords & Tabs

Version: 1 Type: Bass Tab 0 ratings
1 star 2 stars 3 stars 4 stars 5 stars
comments

Insomnia Bass Tab

Title:Insomnia
Artist:Feedback

Bass Intro:
G------------------------------------------
D---11----11----7---7----------------------
A-9----99-----5---55----7---7----99----99--
E---------------------5---55--77----77-----

Verse
G------------------------------------------
D------------------------------------------
A-99999999-55555555------------------------
E------------------55555555-77777777-------
[ Tab from: http://www.guitartabs.cc/tabs/f/feedback/insomnia_btab.html ]
Chorus
G--------------------------------------------------------------------
D--------------------------------------------------------------------
A-9999999999999999-555555555555555-----------------------------------
E---------------------------------5555555555555555-777777777777777---

Bridge
G------------------------------------------
D---11--11-11---7--7-7---------------------
A-99--99--9---55-55-5----7--7-7---9--9-9---
E----------------------55-55-5--77-77-7----
Comments