Federal Epidemic - I Dont Like You Chords & Tabs

 

I Dont Like You Chords & Tabs

Federal Epidemic Chords & Tabs

Version: 1 Type: Bass Tab 0 ratings
1 star 2 stars 3 stars 4 stars 5 stars
comments

I Dont Like You Bass Tab

G:-----------------------------------I
D:-----------------------------------I       <-----Intro
A:-----4--------4--------4--------4--I             Riff
E:-0-----4--0-----4--0-----4--0-----4I

G:-----------------------------------I
D:-----------------------------------I X4    <-----Verse
A:-----------------4-4---4-----------I             Riff
E:-0-0---0-0-0---0---------4-4---4---I
[ Tab from: http://www.guitartabs.cc/tabs/f/federal_epidemic/i_dont_like_you_btab.html ]
G:-----------------------------------I
D:-----------------------------------I      <------Chorus
A:---------3-4----------3-4----------I              Riff
E:-0-0-0-0------0-0-0-0--------------I

G:-----------------------------------I
D:-----------------------------------I     <------Chorus
A:---------3-4---0-0-5-0-8-7---------I             Riff
E:-0-0-0-0---------------------------I            Cont'd
Comments