Fear Factory - Slave Labor Chords & Tabs

 

Slave Labor Chords & Tabs

Fear Factory Chords & Tabs

Version: 1 Type: Tab 0 ratings
1 star 2 stars 3 stars 4 stars 5 stars
comments

Slave Labor Tab

This is such an awesome song.  This was the first Fear Factory song I
heard and I have since tuned in to some of their other stuff and it
sounds pretty cool.  I know Fear Factory uses 7-string guitars, but
I do not own one or know anyone who does, so I tabbed it out in Drop C.
Play the whole song with distortion.

Slave Labor
As performed on "Archetype"
Written by Fear Factory

Drop C tuning

PM      palm muting
Tr      tremelo picking

Intro (x8)  I know for a fact that this part is not 100% accurate
d[-------------------------------------------------|
A[-------------------------------------------------|
F[-------------------------------------------------|
C[-------------------------------------------------|
G[-------------------------------------------------|
C[-3-2222-2-222-222-3-222-3-222-3-222-222----------|
  PM     PM        PM    PM    PM

(Synthesizer arranged for guitar, x2, distortion)
d[-----------------------------------------|
A[-----------------------------------------|
F[-9--------12--------10-------7-----------|
C[-x--------x---------x--------x-----------|
G[-7--------10--------8--------5-----------|
C[-----------------------------------------|
[ Tab from: http://www.guitartabs.cc/tabs/f/fear_factory/slave_labor_tab.html ]
Verse (x4)
d[-------------------------------------------------|
A[-------------------------------------------------|
F[-------------------------------------------------|
C[-------------------------------------------------|
G[-------------------------------------------------|
C[-3-22-222-3-22-222-3-22-222-3-22-22-555-555------|
  PM.........................................

Pre-chorus
d[--------------------------------------------------|
A[--------------------------------------------------|
F[--------------------------------------------------|
C[--------------------------------------------------|
G[-5-5-5-5-5-5-5-5-5-5-5-5-3-3-3-3-3-3-3-3-3-3-3-3--|
C[-5-5-5-5-5-5-5-5-5-5-5-5-3-3-3-3-3-3-3-3-3-3-3-3--|

Chorus
d[---------------------------------------------------|
A[---------------------------------------------------|
F[---------------------------------------------------|
C[---------------------------------------------------|
G[---------------------------------------------------|
C[-2--------0--------3--------2--------5--------3----|
  Tr.................................................

Intro

Verse

Pre-chorus

Chorus

Bridge Part 1 (x4)         Part 2 (x12)
d[------------------------]--------------------------|
A[------------------------]--------------------------|
F[------------------------]--------------------------|
C[------------------------]--------------------------|
G[------------------------]-3-2---3-2---3-2---3-3-2--|
C[-3-2---3-2---3-2--3-3-2-]-3-2---3-2---3-2---3-3-2--|

Play this after the 6th and 12th times (for Part 2)
d[-------------------------|
A[-------------------------|
F[-------------------------|
C[-------------------------|
G[-------------------------|
C[-5-------------3---------|
  Tr.......................

Chorus

Intro

Song Structure:
Intro
Verse
Pre-chorus
Chorus
Intro
Verse
Pre-chorus
Chorus
Bridge pt. 1
Bridge pt. 2
Chorus
Intro

Peace.  Enjoy.
Comments