Fear Factory - Securitron Chords & Tabs

 

Securitron Chords & Tabs

Fear Factory Chords & Tabs

Version: 3 Type: Tab 0 ratings
1 star 2 stars 3 stars 4 stars 5 stars
comments

Securitron Tab

   
          SECURITRON by FEAR FACTORY 
  
          SECURITRON (POLICE STATE 2000) 
  
          6-STRING = A D G C F A 
          7-STRING = A D G C F A D 
          * = PALM-MUTE 
 
          ---------------------------------------------------------------------------------------------- 
          Song: Securitron (Police State 2000) 
          Artist: Fear Factory 
          Album: Obsolete 
          Label: Roadrunner Records 
 
          Dry Lung Vocal Martyr:  Burton C. Bell 
          Heavy Duty Scarifier:  Dino Cazares 
          Total Harmonic Distortion:  Christian Olde Wolbers 
          Maximum Effective Pulse Generator:  Raymond Herrera 
 
          This is probably the most difficult Fear Factory song there is to play, the notes starting 
          RIFF A for instance are almost a blur, and extremely difficult to play. RIFF E also requires 
          some picking skills, because you have to switch between the 2nd and the 5th string very 
          accuratly and very fast. In the main part of the song (while Burton is singing)it isn't a 
          problem if you miss one of those fast palm-muted notes, but you should try to strike as many 
          notes as possible. 
 
          For questions, remarks or changes e-mail me at: crashed_zeppelin@hotmail.com 
 
          Tabbed by Ditmar 
          ---------------------------------------------------------------------------------------------- 
 
 
          RIFF A: 
          A|------------------------------| 
          F|------------------------------| 
          C|------------------------------| 
          G|------------------------------| 
          D|--0-0-0-0-0-0-0-0-0--1----0---| 
          A|------------------------------| 
              * * * * * * * * *  *    * 
 
          RIFF B: 
          A|------------------------------------------------------| 
          F|------------------------------------------------------| 
          C|------------------------------------------------------| 
          G|------------------------------------------------------| 
          D|--0-0-0-0-0-0-0-0-0--1-----0-----1-----0-----0---1----| 
          A|------------------------------------------------------| 
              * * * * * * * * * *      *     *     *     *   * 
 
          RIFF C: 
          A|--------------------------------------------------| 
          F|--------------------------------------------------| 
          C|--------------------------------------------------| 
          G|------------------------------2---3---2--2---3----| 
          D|--0-0-0-0-0-0-0-0-0--1----0---0---1---0--0---1----| 
          A|--------------------------------------------------| 
              * * * * * * * * *  *    * 
 
          RIFF D: 
          A|------------------------------------------| 
          F|------------------------------------------| 
          C|------------------------------------------| 
          G|------------------------------------------| 
          D|------------------------------------------| 
          A|-10-10-10-10-10---10--10---10--10--12--10-| 
             *  *  *  *  *    *   *    *   *   *   * 
 
          A|-----------------------------------| 
          F|-----------------------------------| 
          C|-----------------------------------| 
          G|-----------------------------------| 
          D|-----------------------------------| 
          A|-8-8-8-8-8---8--8--8--8----10--8---| 
             * * * * *   *  *  *  *    *   * 
 
          A|----------------------------------| 
          F|----------------------------------| 
          C|----------------------------------| 
          G|----------------------------------| 
          D|----------------------------------| 
          A|-7-7-7-7-7---7--7--7--7----8--7---| 
             * * * * *   *  *  *  *    *  * 
 
          A|-----------------------------------------------| 
          F|-----------------------------------------------| 
          C|-----------------------------------------------| 
          G|-----------------------------------------------| 
          D|---------------------------2---3---2--2---3----| 
          A|-5-5-5-5-5---5--5----------0---1---0--0---1----| 
             * * * * *   *  * 
 
          RIFF E: 
          A|---------------------|-------------------|-------------------|-------------------| 
          F|------0-----0--------|----0-----0--------|----0-----0--------|----0-----0-----0--| 
          C|---------------------|-------------------|-------------------|-------------------| 
          G|---------------------|-------------------|-------------------|-------------------| 
          D|---5-----5-----7--5--|-7-----3-----7--5--|-7-----2-----2--2--|-3-----3-----3-----| 
          A|---------------------|-------------------|-------------------|-------------------| 
 
          RIFF F: 
          A|----------------------|--------------------|--------------------|--------------------| 
          F|----------------------|--------------------|--------------------|--------------------| 
          C|----------------------|--------------------|--------------------|--------------------| 
          G|---7--7---7---7--7--7-|-7--7---5---5--7--7-|-7--7---5---5--7--7-|-7--7---5---5--5--5-| 
          D|---5--5---5---5--7--5-|-7--7---3---3--7--5-|-7--7---2---2--7--5-|-7--7---3---3--3--3-| 
          A|----------------------|--------------------|--------------------|--------------------| 
 
          RIFF G: 
          A|--------------------------|-------------------------| 
          F|--------------------------|-------------------------| 
          C|--------------------------|-------------------------| 
          G|--------------------------|-------------------------| 
          D|--------------------------|-------------------------| 
          A|--3---5---3----6-6---2--5-|-3---5---3----6-6---2----| 
              *   *   *    * *   *  *   *   *   *    * *   * 
 
          RIFF H: 
          A|--------------------------|-------------------------| 
          F|--------------------------|-------------------------| 
          C|--------------------------|-------------------------| 
          G|--------------------------|-------------------------| 
          D|--5---7---5----8-8---4--7-|-5---7---5----8-8---4----| 
          A|--3---5---3----6-6---2--5-|-3---5---3----6-6---2----| 
                           * *                       * * 
 
          RIFF I: 
          A|-------------------| 
          F|-------------------| 
          C|-------------------| 
          G|-------------------| 
          D|-------------------| 
          A|--6-6-6-6-6-6-6-6--| 
              * * * * * * * * 
 
          RIFF J: 
          A|-------------------------| 
          F|-------------------------| 
          C|-------------------------| 
          G|-------------------------| 
          D|-------------------------| 
          A|--3---5---3----6---2--5--| 
 
          RIFF K: 
          A|--------------------------------| 
          F|--------------------------------| 
          C|--------------------------------| 
          G|--------------------------------| 
          D|--------------------------------| 
          A|--3---5---3----6-6-6-6-6-6-6-6--| 
                           * * * * * * * * 
 
          RIFF L: 
          A|-------------------------| 
          F|-------------------------| 
          C|-------------------------| 
          G|-------------------------| 
          D|--5---7---5----8---4--7--| 
          A|--3---5---3----6---2--5--| 
 
          RIFF M: 
          A|-------------------------------|------------------------------| 
          F|-------------------------------|------------------------------| 
          C|-------------------------------|------------------------------| 
          G|--7---7----7-------------------|-7---7----5-------------------| 
          D|--5---5----5-----5-5-5--7---5--|-7---7----3-----5-5-5--7---5--| 
          A|-------------------------------|------------------------------| 
                             * * *  *   *                   * * *  *   * 
 
          A|-------------------------------|------------------------------| 
          F|-------------------------------|------------------------------| 
          C|-------------------------------|------------------------------| 
          G|--7---7----5-------------------|-7---7----5-------------------| 
          D|--7---7----2-----5-5-5--7---5--|-7---7----3-----3-3-3--3---3--| 
          A|-------------------------------|------------------------------| 
                             * * *  *   *                   * * *  *   * 
 
          RIFF N: 
          A|------------------|------------------|------------------|----------------| 
          F|------------------|------------------|------------------|----------------| 
          C|------------------|------------------|------------------|----------------| 
          G|------------------|------------------|------------------|----------------| 
          D|--5---5---5--7--5-|-7--7---3----7--5-|-7--7---2----7--5-|-7--7---3----3--| 
          A|--5---5---5--7--5-|-7--7---3----7--5-|-7--7---3----7--5-|-7--7---3----3--| 
 
          INTRO 
          (SONG STARTS AFTER 33 SECONDS) 
          RIFF A 8x 
          RIFF B 3x 
          RIFF C 
          RIFF B 3x 
          RIFF C 
          RIFF B 3x 
          RIFF C 
          RIFF B 7x 
          RIFF C 8x 
          RIFF D 
          RIFF C 
          RIFF B 7x 
          RIFF C 
          RIFF E 2x 
          RIFF F 2x 
          RIFF G 2x 
          RIFF H 2x 
          RIFF I 2x 
          RIFF J 3x 
          RIFF K 
          RIFF J 3x 
          RIFF K 
          RIFF L 2x 
          RIFF B 4x 
          RIFF A 
          RIFF E 2x 
          RIFF M 4x 
          RIFF N 4x 
          FADE OUT (RIFF E PLAYED CLEAN)
[ Tab from: http://www.guitartabs.cc/tabs/f/fear_factory/securitron_tab_ver_3.html ]
Comments