Fear Factory - Replica Chords & Tabs

 

Replica Chords & Tabs

Fear Factory Chords & Tabs

Version: 1 Type: Bass Tab 0 ratings
1 star 2 stars 3 stars 4 stars 5 stars
comments

Replica Bass Tab

Song Title: Replica
Artist: Fear Factory
----------------------------------------------

                                               Antonio Musco 
 
Bass Tab: Replica by Fear Factory from Demanufacture (1995)  
 
****DROPPED D TUNING****************
 
Play x times
|--------------------------------------------------------------
|--------------------------------------------------------------
|--------------------------------------------------------------
|-0-0-0-0-0-0-3-------3-3-3-5------2-2-2-2-3-----3-3-3-1-------

then...
|--------------------------------------------------------------
|--------------------------------------------------------------
|--------------------------------------------------------------
|-0-0-0-0-0-0-3-------3-3-3-5------2-2-2-2-3-----3-3-3-1-------

[ Tab from: http://www.guitartabs.cc/tabs/f/fear_factory/replica_btab.html ]
Bridge
|--------------------------------------------------------------
|--------------------------------------------------------------
|--------------------------------------------------------------
|-3-5-2-5-7-4-----3-5-2------2-2-2-2-2-2-2-2-2-2-2-2-2-2-2-2-2-


|-----------------------------------------------------------------|
|-----------------------------------------------------------------|
|-3----5---2----2-2--0--5--7---4---4--4--0--3----5--2---2---------|
|-3----5---2----2-2--0--5--7---4---4--4--0--3----5--2---2---------|

Chorus riff/
|-----------------------------------------------------------------|
|-----------------------------------------------------------------|
|-----------------------------------------------------------------|
|-0--00--00-0-0-0-0-0-0--0--0-0--0-0-0-0--0-0-0-0-0---------------|

    That's all!

                                     tabbed by Antonio Musco 


Submitted by:  Antonio Musco (a.musco@tau.it)


Comments