Fear Factory - Linchpin Chords & Tabs

 

Linchpin Chords & Tabs

Fear Factory Chords & Tabs

Version: 3 Type: Tab 0 ratings
1 star 2 stars 3 stars 4 stars 5 stars
comments

Linchpin Tab

The song starts with a sort of dampen to hammmer on kind of action. If you dont know what I mean then I apologise.

1 is thickest string, 6 is thinnest

Intro:
1:-1-1-----1-1-1-----1-1-1-----1-1-1-----2
2:-1-1-----1-1-1-----1-1-1-----1-1-1-----2

1:-1-1-----1-1-1-----1-1-1-----1-1
2:-1-1-----1-1-1-----1-1-1-----1-1 Halt then repeat when vocals start-you know what I mean if you've heard the song

Part before verse:
1:-2--1-1-2---2--1-1-2---2--1-1-2---2-1
2:-2--1-1-2---2--1-1-2---2--1-1-2---2-1
[ Tab from: http://www.guitartabs.cc/tabs/f/fear_factory/linchpin_tab_ver_3.html ]
Part before chorus:
1:-111111---111111---1--1-1-1---111111---111111---1--1-1-1
2:-111111---111111---1--1-1-1---111111---111111---1--1-1-1

Chorus:
2:-5--5-5-5-5------3---2----3--5--5-5-5-5------1---2---
3:-5--5-5-5-5---2--3---2---23--5--5-5-5-5---2--1---2---
4:--------------2----------2----------------2----------

2:-5--5-5-5-5------3---2----3--5--5-5-5-5------------------
3:-5--5-5-5-5---2--3---2---23--5--5-5-5-5---2--3-----5-----
4:-5--5-5-5-5---2----------2----------------2--3-----5-----

Bridge back to verse riff:
2:-5--4--3--
3:-5--4--3--

Comments