Fear Factory - Linchpin Chords & Tabs

 

Linchpin Chords & Tabs

Fear Factory Chords & Tabs

Version: 2 Type: Bass Tab 0 ratings
1 star 2 stars 3 stars 4 stars 5 stars
comments

Linchpin Bass Tab

   
Fear Factory
Linchpin

INTRO
G|-------------------------------------------------|
D|-------------------------------------------------|
A|-------------------------------------------------|
E|-1-0-0h1p1p-0h1p1p-0h1p1p-0-1-0-0h1p1p-0h1p1p-0-1|

Cant take me apart!!!

G|----------------------------------------------------------|
D|----------------------------------------------------------|
A|----------------------------------------------------------|
E|-1-0-0h1p1p-0h1p1p-0h1p1p-0-1-0-0h1p1p-0h1p1p-0h1p1p-0-1-0|

G|-------------------------------------------------|
D|-------------------------------------------------|
A|-------------------------------------------------|
E|-0h1p1p-0h1p1p-0h1p1p-1001-1001-1001-1001-1------|

VERSE
G|-------------|
D|-------------|
A|-------------|
E|0--0-0---0-0-|

(play the open notes a few more times then this)
|----------------|------------------|
|----------------|------------------|
|----------------|------------------|
|1001-1001-1001-1|1111-0010-000-(X4)|

CHORUS
G|---------------------------------------------------------------|
D|---------------------------------------------------------------|
A|5-5-5-5-5h7-3-3-2-2--5-5-5-5-5h7----------5-5-5-5-5h7-8-8------|
E|---------------------------------2-2-3-3------------------7-7--|
[ Tab from: http://www.guitartabs.cc/tabs/f/fear_factory/linchpin_btab_ver_2.html ]
---------------------------------------------------------------------|
---------------------------------------------------------------------|
5-5-5-5-5h7-8-8------5-5-5-5-5h7-8-8------5-5-5-5-5h7-/10-9----------|
----------------7-7------------------7-7--------------------0-0-3-2-0|

G|-------------------------------------------------|
D|-------------------------------------------------|
A|-------------------------------------------------|
E|-1-0-0h1p1p-0h1p1p-0h1p1p-0-1-0-0h1p1p-0h1p1p-0-1|

VERSE
CHORUS

BRIDGE		(No you can't take ...)
|---------------------------------------------------------------|
|---------------------------------------------------------------|
|---------------------------------------------------------------|
|0-0-3-2--0-0-3-2--0-0-3-2--0-0-3-2--0-0-3-2--0-0-3-2--0-0-3-2--|

CHORUS (modified at end)
G|---------------------|
D|---------------------|
A|5-5-5-5-5h7-8-8------|
E|----------------7-7--|

 ----------------------------------------------------------------|
 ----------------------------------------------------------------|
 5-5-5-5-5h7-8-8------5-5-5-5-5h7-8-8------5-5-5-5-5h7-8-8-10-8-5|
 ----------------7-7------------------7-7------------------------|

END		(You cant chaaaaaange me)
G|---------------------------------------------------------------------------------|
D|---------------------------------------------------------------------------------|
A|-5-5-5-5-5-5-5-3--5-5-5-5-5-5-5-3--5-5-5-5-5-5-5-3---5-5-5-5-5-5-5-3-------------|
E|-----------------------------------------------------------------------0-0-3-2-1-|

 -----------|
 -----------|
 -----------|
 0-0-3-2-1-0|
Comments