Fear Factory - Leechmaster Chords & Tabs

 

Leechmaster Chords & Tabs

Fear Factory Chords & Tabs

Version: 1 Type: Tab 0 ratings
1 star 2 stars 3 stars 4 stars 5 stars
comments

Leechmaster Tab

   
Fear Factory-Leechmaster
-Tuning -B,E,A,D,F#,B



-Intro-
|-----------------------------------------------------------|
|-----------------------------------------------------------|
|-----------------------------------------------------------|
|-----------------------------------------------------------|
|-----------------------------------------------------------|
|-5\-2222-2222-2222-2222-3-4-5\-2222-2222-2222-2222-3-4-5\--|
     **** **** **** **** * *    **** **** **** **** * *

|------------------------------------------|
|------------------------------------------|
|------------------------------------------|
|------------------------------------------|
|-------------------------2--5--7--5--2-5--|
|-2222-2222-2222-2222-3-4-0--3--5--3--0-3--|
  **** **** **** **** * * *  *  *  *  * *


Riff B
Use your ring finger to play the fifth fret on the B string, use your 
pinkie finger to play the fifth fret on the E string, use your middle 
finger to play the fourth fret on the E string, and use your index 
finger to play the third fret on the B string.  Although awkward at 
first, this is the smoothest method of playing this riff.

                       P   P                       P   
|----------------------------------------------------------|
|----------------------------------------------------------|
|----------------------------------------------------------|
|----------------------------------------------------------|
|---------------------5-4-5-4---------------------5-4------|
|-5555-5555-5555-5555---------5555-5555-5555-5555-----3-5--|
  **** **** **** ****         **** **** **** ****

[ Tab from: http://www.guitartabs.cc/tabs/f/fear_factory/leechmaster_tab.html ]
Riff C
|-----------------------------------------------------------|
|-----------------------------------------------------------|
|-----------------------------------------------------------|
|-----------------------------------------------------------|
|-----------------------------------------------------------|
|-2222-2222-2222-2222-222-222--2222-2222-2222-2222-222-222--|
  **** **** **** **** *** ***  **** **** **** **** *** ***


Riff D
|--------------------------------------------------------------|
|--------------------------------------------------------------|
|--------------------------------------------------------------|
|--------------------------------------------------------------|
|-------2-3333-2-------2-3333-2-------2-3333-2-------2-3333-2--|
|-0-3-4----------0-3-4----------0-3-4----------0-3-4-----------|
  * * * * **** * * * * * **** * * * * * **** * * * * * **** *


Riff E
|-------------------------------------------------------------|
|-------------------------------------------------------------|
|-------------------------------------------------------------|
|-6-------5-------4-------3--------------------------3--------|
|-4-------3-------2-------1-------444444333333222222-1--------|
|---0-0-0---0-0-0---0-0-0---0-0-0----------------------0-0-0--|
    * * *   * * *   * * *   * * * ****************** * * * *


Riff F
Let notes that are not palm muted ring out
|-------------------------------------------------|
|-------------------------------------------------|
|-------------------------------------------------|
|------------------------------------------2------|
|--------------3----2-----------------3-----------|
|-333333333333-----------333333333333-------------|
  ************           ************


Riff G
|--------------------------------------|
|--------------------------------------|
|--------------------------------------|
|-6-----5-5-----4-4-----3-3------------|
|-4-----3-3-----2-2-----1-1-------2-2--|
|---0-0-----0-0-----0-0-----0-0-2-0-0--|
  * * * * * * * * * * * * * * * * * *
Comments