Fear Factory - Invisible Wounds Chords & Tabs

 

Invisible Wounds Chords & Tabs

Fear Factory Chords & Tabs

Version: 2 Type: Tab 0 ratings
1 star 2 stars 3 stars 4 stars 5 stars
comments

Invisible Wounds Tab

   
band: FEaR FactORY
song: INVisIBLe WOuNDs
album:DIGiMorTAL
tabber:ChRis
tuning: 7-STRING DOWN ONE FULL STEP (A,D,G,C,F,A,D)

INTRO PART 1 (0:00) (with flanger*)
A|----------------------------------------------------|
F|----------------------------------------------------|
C|--------5---5---5---5h7p5--------5---5---5---5h7p5--|
G|----------------------------------------------------|
D|-3--3-3---3---3---3---------------------------------|
A|--------------------------6--6-6---6---6---6--------|

INTRO PART 2 (0:06) (with flanger*)
A|-----------------------------------3-------3-----|
F|-------------------------------3-------3---------|
C|--------8---8---8--------------------------------|
G|------------------------3--3-3---3---3---3---3---|
D|-6--6-6---6---6---6-5-6--------------------------|
A|-------------------------------------------------|

INTRO PART 3 (with distortion**) (0:13)
A|---------------|
F|-------------5-|
C|-5---8-------5-|
G|-5-8-8-------3-|
D|-3-8-6-6-5-6---|
A|---6-----------|

VERSE PART 1 (0:26)
PLAY INTRO PART 1 AND 2
VERSE PART 2      1x
A|------------5----|
F|--------------5--|
C|-----------------|
G|-3--3-3-3-3------|
D|-----------------|
A|-----------------|

THEN PLAY INTRO PART 2

CHORUS (0:50)(1:41)
PLAY INTRO PART 3
[ Tab from: http://www.guitartabs.cc/tabs/f/fear_factory/invisible_wounds_tab_ver_2.html ]
BRIDGE PART 1 (2:06)
A|-------------------------------------------|
F|-------------------------------------------|
C|-------------------------------------------|
G|-------------------------------------------|
D|-2b/5-----2b/5-----2b/5--------------------|
A|------000------000------[000]-[000]-[111]--|

BRIDGE PART 2(2:26)  2x
A|--------------------|----------------------------------|
F|--------------------|----------------------------------|
C|-----5---5---3----7-|-----8---7---8---7-----8---7---8--|
G|--------------------|----------------------------------|
D|-3-3---3---3---3----|-6-6---6---6---6---8-8---8---8----|
A|--------------------|----------------------------------|

LAST VERSE (2:38)
A|---------------------------------------------------------|
F|-----5---5---5---5-----5---5---5---5-----5---5---5---5---|
C|---------------------------------------------------------|
G|-------------------------------------------------------3-|
D|-3-3---3---3---3---1-1---1---1---1---6-6---6---6---6-----|
A|---------------------------------------------------------|

END WITH CHORUS (2:54 til end)

here are just some helpful hints for you to use
[   ]=triplet

SETTINGS ON THE EFFECTS THAT I USED ON "INVISIBLE WOUNDS"
DISTORTION           FLANGER
drive-10.0          time-10.0
level-10.0        feedback-3.0
treble-5.3         speed-0.20
middle-2.0         depth-10.0
bass-10.0

if you have any questions or comments, email me @ cmartinez@academicplanet.com
Comments