Fear Factory - Invisible Wounds Chords & Tabs

 

Invisible Wounds Chords & Tabs

Fear Factory Chords & Tabs

Version: 1 Type: Tab 0 ratings
1 star 2 stars 3 stars 4 stars 5 stars
comments

Invisible Wounds Tab

   
Invisible Wounds
F E A R   F A C T O R Y
Tabbed By Aaron Bridgeman (rokken@sicness.net)

http://bogans.arecool.net

TUNING: Down 2 1/2 steps (B E A D F# B)

KEY:
/   = slide up
pm. = palm mute
[ Tab from: http://www.guitartabs.cc/tabs/f/fear_factory/invisible_wounds_tab.html ]
VERSE:
b |---------------------------------------------------->
F#|---------------------------------------------------->
D |---------------------------------------------------->
A |-------8---8---8---8-8/10--------8---8---8---8-8/10->
E |---------------------------------------------------->
B |-6--6----6---6---6---------4--4----4---4---4-------->

>-----------------------------------|
>-----------------------------------|
>-------6-5-6-5-6--------8-6---8--6-|
>-----------------------------------|
>-4--4-----4-------6--6------6------|
>-----------------------------------|

CHORUS:
b |------------|
F#|------------|
D |------------|
A |-------6--8-|
E |-8--6--4--6-|
B |-6--4-------|
work around those chords for the heavy bits of the song

BRIDGE:
b |------------------------|
F#|------------------------|
D |------------------------|
A |------------------------|
E |-2-----------2----------|
B |-0--0000000--0--0000000-|
pm     .......     .......
listen to song for timing

KILLER SONG!
Comments