Fear Factory - Invisible Wounds Dark Bodies Chords & Tabs

 

Invisible Wounds Dark Bodies Chords & Tabs

Fear Factory Chords & Tabs

Version: 1 Type: Tab 0 ratings
1 star 2 stars 3 stars 4 stars 5 stars
comments

Invisible Wounds Dark Bodies Tab

Tabbed by: Luke Ashton (skyehigh420@hotmail.com)

Artist:- Fear Factory	
Title:- Invisible Wounds (Dark Bodies)
Album:- Digimortal

The intro is played clear with a little reverb and the verse and bridge is
full metal distartion..hehe :)

E---------------------------------------------------------------------------	
B---------------------------------------------------------------------------
G---------------------------------------------------------------------------
D------3-----3-----3---5-----5-----------1-----1-----1-----3-----3----------
A---------------------------------------------------------------------------
D---3-----3-----3---------3-----3-----1-----1-----1-----------1-----1-------


E---------------------------------------------------------------------------	
B---------------------------------------------------------------------------
G---------------------------------------------------------------------------
D-----6-----6-----6--------------------8-----8-----8-----8------------------
A---------------------------------------------------------------------------
D--6-----6-----6-----6---55---6-----8-----8-----8-----8---------------------
[ Tab from: http://www.guitartabs.cc/tabs/f/fear_factory/invisible_wounds_dark_bodies_tab.html ]
The Above is the intro and verse...
                                
E-----------------------------------------------------------------------------	
B-----------------------------------------------------------------------------
G---3---33---3---3--3-3-3---3----3-3-3-----1---11---1---1--1-1-1---1----1-1-1-
D---3---33---3---3--3-3-3---3----3-3-3-----1---11---1---1--1-1-1---1----1-1-1-
A---3---33---3---3--3-3-3---3----3-3-3-----1---11---1---1--1-1-1---1----1-1-1-
D---3---33---3---3--3-3-3---3----3-3-3-----1---11---1---1--1-1-1---1----1-1-1-


E-----------------------------------------------------------------------------	
B-----------------------------------------------------------------------------
G---6---66---6---6--6-6-6-6--5-5-6-----8---88---8---8--8-8-8---8----8-8-8-----
D---6---66---6---6--6-6-6-6- 5-5-6-----8---88---8---8--8-8-8---8----8-8-8-----
A---6---66---6---6--6-6-6-6--5-5-6-----8---88---8---8--8-8-8---8----8-8-8-----
D---6---66---6---6--6-6-6-6--5-5-6-----8---88---8---8--8-8-8---8----8-8-8-----

The above Is the heavy chorus part...

E-----------------------------------------------------------------------------	
B-----------------------------------------------------------------------------
G---0---11111-0---111111111-0---11111-0-1-0-1-11111---------------------------
D---0---11111-0---111111111-0---11111-0-1-0-1-11111---------------------------
A---0---11111-0---111111111-0---11111-0-1-0-1-11111---------------------------
D---0---11111-0---111111111-0---11111-0-1-0-1-11111---------------------------

And this is the dark bridge.


Have FUN...:)
Comments