Fear Factory - Descent Chords & Tabs

 

Descent Chords & Tabs

Fear Factory Chords & Tabs

Version: 2 Type: Tab 0 ratings
1 star 2 stars 3 stars 4 stars 5 stars
comments

Descent Tab

   
Fear Factory
   "Descent"
   Off the CD Obsulete

   Transcribed by Orion10248@aol.com(Jay Knight)

   Theres basically only 3 parts to this song
   Dropped D(DADGBE)

   Main Riff(repeated numerous times)
   E--------------------------------|
   B----2-----2-----2-------2-------|
   G------2-----2-----2---2---2-----|
   D--0-----2-----3-----5-----------|
   A--0-----2-----3-----5-----------|
   D--0-----2-----3-----5-----------|

   (During Verse parts distorted bass plays)
[ Tab from: http://www.guitartabs.cc/tabs/f/fear_factory/descent_tab_ver_2.html ]
   Pre-Chorus-Use some palm mutes)
   E-------------------------------|
   B-------------------------------|
   G-------------------------------|
   D--0--0-0-0-0-2--2-2-2-2--------|
   A--0--0-0-0-0-2--2-2-2-2--------|
   D--0--0-0-0-0-2--2-2-2-2--------|

   (During Chorus Main Riff is played)
   Break
   E-----------------------------------------------|
   B-----------------------------------------------|
   G-----------------------------------------------|
   D--0-0-0-0-2-2-2-2-2-2-3-3-3-3-3-3-5-5-5-5-5-5--|
   A--0-0-0-0-2-2-2-2-2-2-3-3-3-3-3-3-5-5-5-5-5-5--|
   D--0-0-0-0-2-2-2-2-2-2-3-3-3-3-3-3-5-5-5-5-5-5--|

   *Thats about it, any questions, corrections, comments just email me. 
Comments