Fear Factory - Dark Bodies Chords & Tabs

 

Dark Bodies Chords & Tabs

Fear Factory Chords & Tabs

Version: 1 Type: Tab 0 ratings
1 star 2 stars 3 stars 4 stars 5 stars
comments

Dark Bodies Tab

Fear Factory - Dark Bodies
Tuning: Drop D


INTRO:


e|------------------------------------------------------------------
B|------------------------------------------------------------------
G|------------------------------------------------------------------
D|--------3----3----3----3s5---5-----------3----3----3----3s5---5---
A|------------------------------------------------------------------
D|-3-3-3----3----3----3-------------1-1-1----1-----1----1-----------


e|------------------------------------------------------------------
B|------------------------------------------------------------------
G|------------------------------------------------------------------
D|--------6-----6-----6-------------------8-----10-----8----10--8---
A|------------------------------------------------------------------
D|-6-6-6-----6-----6-----5--5--6---8-8-8-----8------8-----8---------

[ Tab from: http://www.guitartabs.cc/tabs/f/fear_factory/dark_bodies_tab.html ]
e|------------------------------------------------------------------
B|------------------------------------------------------------------
G|------------------------------------------------------------------
D|--3-3-3-3-3----1-1-1-1-1----6-6-6-6-6---5-5-6---8-8-8-8-8---------
A|--3-3-3-3-3----1-1-1-1-1----6-6-6-6-6---5-5-6---8-8-8-8-8---------
D|--3-3-3-3-3----1-1-1-1-1----6-6-6-6-6---5-5-6---8-8-8-8-8---------


HEAVY PART


e|------------------------------------------------------------------
B|------------------------------------------------------------------
G|------------------------------------------------------------------
D|-0-0-0-1-1-0------------------------------------------------------
A|-0-0-0-1-1-0------------------------------------------------------
D|-0-0-0-1-1-0------------------------------------------------------


That is the basic song...

The heavy part just keeps repeating and after that Dino plays the intro again but changes
the notes that are on the D string and I am still trying to figure that out. This is
my first tab so send me some feedback...goten_z85@yahoo.com
Comments