Fear Factory - Cars Chords & Tabs

 

Cars Chords & Tabs

Fear Factory Chords & Tabs

Version: 4 Type: Tab 0 ratings
1 star 2 stars 3 stars 4 stars 5 stars
comments

Cars Tab

   
Cars: By Fazz a.k.a Eric

Standard tuning (E A D G B E)

E|-----------------|
B|-----------------|
G|-----------------| Part A
D|-----------------|
A|-5-0-------------|
E|-----0-5-5-5-----|

E|-----------------|
B|-----------------|
G|-----------------| Part B
D|-----------------|
A|-----3--------3--|
E|-2-3--3---2-3--3-|
[ Tab from: http://www.guitartabs.cc/tabs/f/fear_factory/cars_tab_ver_4.html ]
E|---------------------------------------------------|
B|---------------------------------------------------|
G|---------------------------------------------------| Part C
D|---0--------------0---3-2----0---------------------|
A|-----0--2-3-2-------0----------0--2-3-2------------|
E|-0--------------0----------0-------------0-0-00----|


E|---------------------------------------------------|
B|---------------------------------------------------|
G|---------------------------------------------------| Part D
D|---0--------------0---3-2----0-----------------0---|
A|-----0--2-3-2-------0----------0--2-3-2----0-2-----|
E|-0--------------0----------0-------------0---------|


Part A x 4
Part B x 2
Part A x 4
Part B x 2
Part A x 4
Part B x 2
Part A x 4
Part B x 2
Part C x 1
Part D x 1
Part A x 4
Part B x 2
Part A x 4
Part B x 2
Part C x 1
Part D x 1
Part A x 4
Part B x 2
Part A x 4
Part B x 2
Part C x 1
Part D x 1
Part A x 4
Part B x 2
(Repeat A and B until it fades out)
Comments