Fear Factory - Cars Chords & Tabs

 

Cars Chords & Tabs

Fear Factory Chords & Tabs

Version: 1 Type: Tab 0 ratings
1 star 2 stars 3 stars 4 stars 5 stars
comments

Cars Tab

"CARS"
Fear Factory


KEY:

/// =  continuously repeat
%   =  rest
H   =  hammer on
^
P   =  pull off
^


w/heavy dist.



(approx. 10 sec.)               
E--------------||------------------------------|-
B--------------||------------------------------|-
G--------------||.-----------------------------|-
D--------------||.--2-1------------------------|-
A-2///---------||-------0-2--%---2--2-2--%-----|-
E--------------||------------------------------|-
INTRO                           pm......

               



E-----------------------------|----------------------------|-
B-----------------------------|----------------------------|-
G-----------------------------|----------------------------|-
D--2-1------------------------|--2-1-----------------------|-
A------0-2--%---2--2-2--%-----|------0-2--%---2--2-2--%----|-
E-----------------------------|----------------------------|-
                pm......                      pm......


E-----------------------|------------------------|-------------||-
B-----------------------|------------------------|-------------||-
G-----------------------|------------------------|------------.||-
D-2-1-------------------|------------------------|------------.||-
A-----0-2--%--2--2-2----|-0---%--4-0--%--%-------|-0--%---4-0--||-
E--------------------4--|---------------------4--|-------------||-
               pm.....





   1.Here in my car       I feel       
     Here in my car       I can
   2.Here in my car       where the
     Here in my car   oh no   I'm
   3. 
   4.Here in my car
                   (nothing seems)
     Here in my car
                   (nothing seems)
E--||------------------------------|-
B--||------------------------------|-
G--||.-----------------------------|-
D--||.--2-1------------------------|-
A--||-------0-2--%---2--2-2--%-----|-
E--||------------------------------|-
VERSES                     pm......

               
[ Tab from: http://www.guitartabs.cc/tabs/f/fear_factory/cars_tab.html ]
  1.safest of all       I can lock all my doors     and it's the
    only recieve        I can listen   to you    and it keeps me
  2.image breaks down   will you visit   me please     if I
    starting to think  about     leaving tonight     although
  3.
  4.Here in my car             Here in my car
                (nothing seems)              (nothing seems)
    Here in my car             Here in my car
                (nothing seems)              (nothing seems)  
E-----------------------------|----------------------------|-
B-----------------------------|----------------------------|-
G-----------------------------|----------------------------|-
D--2-1------------------------|--2-1-----------------------|-
A------0-2--%---2--2-2--%-----|------0-2--%---2--2-2--%----|-
E-----------------------------|----------------------------|-
                pm......                      pm......



  1.only way I live   in    cars
    stable for nights in    cars
  2.open   my  door   in    cars
  nothing seems right in    cars   *(cars  cars  cars  cars  cars
  3.
  4.                  in    cars
                      in    cars
E-----------------------|------------------------|-------------||-
B-----------------------|------------------------|-------------||-
G-----------------------|------------------------|------------.||-
D-2-1-------------------|------------------------|------------.||-
A-----0-2--%--2--2-2----|-0---%--4-0--%--%-------|-0--%---4-0--||-
E--------------------4--|---------------------4--|-------------||-
               pm.....             *echo repeats





E-||----------------------|---------------------|-
B-||----------------------|---------------------|-
G-||.---------------------|----------------0----|-
D-||.------2---------0----|--------2---------4--|-
A-||----%----2--%--4---4--|-----%----2--%-------|-
E-||--0-------------------|--0------------------|-
*INTERLUDE*

                       (1ST TIME)
E---------------------|------------------------||-
B---------------------|------------------------||-
G---------------------|-----------------------.||-
D-------2---------0---|------------------H--2-.||-
A----%----2--%--4---4-|-----------------0^2----||-
E--0------------------|--0--%--%--0-%-0--------||-


(2ND TIME)
E------------------------------|-
B------------------------------|-
G------------------------------|-
D------------2------%----------|-
A------0-2---------------------|-
E--0---------------------------|-
      let ring...



After each verse, play INTERLUDE.

After 4th verse in the OUTRO; it's the same as the INTRO-
play that 4 times and fade out

This is only the lead guitar, there are others not written.
Comments