Fear Factory - Bite The Hand That Bleeds Chords & Tabs

 

Bite The Hand That Bleeds Chords & Tabs

Fear Factory Chords & Tabs

Version: 1 Type: Bass Tab 0 ratings
1 star 2 stars 3 stars 4 stars 5 stars
comments

Bite The Hand That Bleeds Bass Tab

Fear Factory - Bite The Hand That Bleeds
tabbed by: drekim
email: uglybassguy@hotmail.com

start at :36

pre chorus:

G |---------------------------------------|
D |---------------------------------------|
A |---------------------------------------|
E |---------------------------------------|
B |----0-----3-----6--3-----3--6--3--6----|  X3 then...


|---------------------------------------|
|---------------------------------------|
|---------------------------------------|
|---------------------------------------|
|--4----4----4-----4--6----6----6----6--|

chorus:

|---------------------------------------|
|---------------------------------------|
|---------------------------------------|
|--7------------------------------------|
|----------3----3--------3----0----3----|


|---------------------------------------|
|---------------------------------------|
|---------------------------------------|
|-5-------------------------------------|
|----------1----1--------1----0----1----|

[ Tab from: http://www.guitartabs.cc/tabs/f/fear_factory/bite_the_hand_that_bleeds_btab.html ]
|---------------------------------------|
|---------------------------------------|
|---------------------------------------|
|--7------------------------------------|
|----------3----3--------3----0----3----|


|---------------------------------------|
|---------------------------------------|
|---------------------------------------|
|-5--------8----8--------8----7----8----|
|---------------------------------------|


|---------------------------------------|
|---------------------------------------|
|---------------------------------------|
|-7--------10---10-------10---7----10---|
|---------------------------------------|


|---------------------------------------|
|---------------------------------------|
|---------------------------------------|
|-5--------8----8--------8----7---(8)---|< let this note fade into second 
|---------------------------------------|  verse then repeat all ^ 


Break down:

|---------------------------------------|
|---------------------------------------|
|---------------------------------------|
|--7------------5------------8----------|
|---------------------------------------|


|---------------------------------------|
|---------------------------------------|
|---------------------------------------|
|--7------------5------------8-8-8-8----|
|---------------------------------------|

then go back to second half of chorus and your done.
Comments