Fear Before The March Of Flames - Whiskey Is Alright In Its Place But Its Place Is In Hell Chords & Tabs

 

Whiskey Is Alright In Its Place But Its Place Is In Hell Chords & Tabs

Fear Before The March Of Flames Chords & Tabs

Version: 1 Type: Tab 0 ratings
1 star 2 stars 3 stars 4 stars 5 stars
comments

Whiskey Is Alright In Its Place But Its Place Is In Hell Tab

Tabbed By: Coheedandnofx6
Aim:xautumnxromance

Hey guys this is now my favorite song to play by fear before next to state of texas.
Im sure this tab is really accurate and i hope you enjoy playing it as much as I do.
I have the rest of Art Damage tabbed minus The Long Road To The Middle. And trust me
I tabbed this cd better than the last one.

                      ::INTRO::
e|-------------------------------------------------------------|
B|-------------------------------------------------------------|
G|-------------------------------------------------------------|
D|-------------------------------------------------------------|
A|-------7-----------7----------------7-----------7------------|
D|---0-0---0-0-0-0-0---0-4-6-6-0--0-0---0-0-0-0-0---0-4-6-6----|
AH   * * * * * * * * * * * * * *  * * * * * * * * * * * * *


         Verse                        Ending
e|----------------------------|--------------------|
B|-----2-2---2---2-2----------|--------------------|
G|---0-----0---0---------1-0--|-------1-0-1--------|
D|-------------------1-3------|---1-3-------3-1----|
A|----------------------------|--------------------|
D|----------------------------|--------------------|
[ Tab from: http://www.guitartabs.cc/tabs/f/fear_before_the_march_of_flames/whiskey_is_alright_in_its_place_but_its_place_is_in_hell_tab.html ]
                    After That
e|-----------------------------------------------------|
B|-----------------------------------------------------|
G|---------------------------7-7-7-7-7-7-7-7-7-7-7-7---|
D|---6-6-6-6-6-6-6-6-6-6-6-6---------------------------|
A|---7-7-7-7-7-7-7-7-7-7-7-7---------------------------|
D|-----------------------------------------------------|

  Then
e|-----------------------------------------------------|
B|-----------------------------------------------------|
G|-----------------------------------------------------|
D|-----------------------------------------------------|
A|-----------------------------------------------------|
D|---6-6-6-0-6-6-6-0-6-6-6-0-6-6-6-0-------------------|


  Upsell Upsell Upsell
e|---------------------|
B|---------------------|
G|---------------------|
D|-------6p0-----6p0---|
A|---5p0-----5p0-------|
D|---------------------|

  Super Awesome Part                 After first time.
e|-----------------------------------|------------------------------------|
B|-----------------------------------|--- --------------------------------| 
G|-----------------------------------|------------------------------------|
D|-------*6p0------------------------|------*6p0---------------*6p0-*8p0--| 
A|---*5p0----*5p0---*5-0-0-0-0-0-0-0-|--*5p0----*5p0--*5---*5p0-----------|
D|----------------0----0-0-0-0-0-0-0-|---------------0---0----------------|
PM.                    . . . . . . . 
AH*

HAVE FUN!
AND RATE!
Comments