Fear Before The March Of Flames - Should Have Stayed In The Shallows Chords & Tabs

 

Should Have Stayed In The Shallows Chords & Tabs

Fear Before The March Of Flames Chords & Tabs

Version: 1 Type: Tab

Should Have Stayed In The Shallows Tab

here.
|--0-x-xxxx-x-0-0-x--|
|--0-x-xxxx-x-0-0-x--|
|--0-1-xxxx-1-0-0-1--|
|--0-x-xxxx-x-0-0-x--|
|------xxxx----------|
|------xxxx----------|   

|--0-x-xxxx-x-0-0-x--|
|--0-x-xxxx-2-0-0-3--|
|--0-4-xxxx-1-0-0-1--|
|--0-x-xxxx-x-0-0-x--|
|------xxxx----------|
|------xxxx----------|

|--xxxx-------------------------------------------------xxxx--|
|--xxxx-------------------------------------------------xxxx--|
|--xxxx---------9---------9-----------------9---------9-xxxx--|
|--xxxx-6-------x-6-------x-6-------6-------x-6-------x-xxxx--|
|--xxxx---8-----8---8-----8---8-------8-----8---8-----8-xxxx--|
|--xxxx-----7-0-------7-0-------7-0-----7-0-------7-0---xxxx--|

|--0-xxxxxxxx-0-xxxxxxxx-0-xxxxxxxx-0-xxxxxxxx--|
|--0-xxxxxxxx-0-xxxxxxxx-0-xxxxxxxx-0-xxxxxxxx--|
|--0-xxxxxxxx-0-xxxxxxxx-0-xxxxxxxx-0-xxxxxxxx--|
|--6-xxxxxxxx-6-xxxxxxxx-6-xxxxxxxx-6-xxxxxxxx--|
|--0-xxxxxxxx-0-xxxxxxxx-0-xxxxxxxx-0-xxxxxxxx--|
|----xxxxxxxx---xxxxxxxx---xxxxxxxx---xxxxxxxx--|

|--------------------------------------------------------------------------|
|--------------------------------------------------------------------------|
|--------------------------------------------------------------------------|
|--6-----------6-------6-----------6---6h7-----6-----------6---6h7-----6---|
|----8-----000---8-------8-----000---8-----000---8-000-0-0---8-----000---8-|
|------7-0-000-----7-0-----7-0-000---------000-----000-0-0---------000-----|
PM         ...                 ...         ...     ... . .         ...
[ Tab from: http://www.guitartabs.cc/tabs/f/fear_before_the_march_of_flames/should_have_stayed_in_the_shallows_tab.html ]
|---------------------------------------------------------------------------
|------6p5---------6p5----------6p5---------6p5---------6p5---------6p5-----
|--6h7-----6p0-6h7----------6h7-----6h0-6h7---------6h7-----6h0-6h7---------
|---------------------------------------------------------------------------
|----------------------000----------------------000---------------------000-
|----------------------000----------------------000---------------------000-
PM                     ...                      ...                     ...
---------------------------|
------------------6p5------|
--6h7-----6h7---------6p0--|
---------------------------|
------000-----000----------|
------000-----000----------|
      ...     ...

|--0-xxxxxxxx-0-xxxxxxxx-0-xxxxxxxx-0-xxxxxxxx--|
|--0-xxxxxxxx-0-xxxxxxxx-0-xxxxxxxx-0-xxxxxxxx--|
|--0-xxxxxxxx-0-xxxxxxxx-0-xxxxxxxx-0-xxxxxxxx--|
|--6-xxxxxxxx-6-xxxxxxxx-6-xxxxxxxx-6-xxxxxxxx--|
|--0-xxxxxxxx-0-xxxxxxxx-0-xxxxxxxx-0-xxxxxxxx--|
|----xxxxxxxx---xxxxxxxx---xxxxxxxx---xxxxxxxx--|

|--0-x-xxxx-x-0-0-x--|
|--0-x-xxxx-x-0-0-x--|
|--0-1-xxxx-1-0-0-1--|
|--0-x-xxxx-x-0-0-x--|
|------xxxx----------|
|------xxxx----------| 

|----------------------xxxx------|
|----------------------xxxx------|
|----------------------xxxx------|
|--6-----------6-------xxxx------|
|----8-----000---8-----xxxx-000--|
|------7-0-000-----7-0-xxxx-000--|
PM         ...              ...
|------------------------------------------------------------|
|------------------------------------------------------------|
|---------------------------------------------------6p5------|
|--6-----------6------------6-----------6-------6h7-----6p0--|
|----8-----000---8------000---8-----000---8-6h7--------------|
|------7-0-000-----7-0--000-----7-0-000----------------------|
PM         ...          ...         ...
|--0-0-00-0-00-0-0-----------|
|--0-0-00-0-00-0-0-----------|
|--0-0-00-0-00-0-0-----------|
|--6-6-66-6-66-6-6-----------|
|--0-0-00-0-00-0-0-00000000--|
|------------------00000000--|

|---------------------------------------------|
|---------------------------------------------|
|---------------------------------------------|
|---------------------------------------------|
|--0---0---0------------0---0---0-------------|
|--0-6-0-6-0-6-55555555-0-6-0-6-0-6-77777777--|

play ^that^ again, just slower

|--0-0-00-0-00-0-0-----------|
|--0-0-00-0-00-0-0-----------|
|--0-0-00-0-00-0-0-----------|
|--6-6-66-6-66-6-6-----------|
|--0-0-00-0-00-0-0-00000000--|
|------------------00000000--|

then i guess he kinda goes up the neck strumming random junk
it's really nothing

|--0-x-xxxx-x-0-0-x--|
|--0-x-xxxx-x-0-0-x--|
|--0-1-xxxx-1-0-0-1--|
|--0-x-xxxx-x-0-0-x--|
|------xxxx----------|
|------xxxx----------|   

|--0-x-xxxx-x-0-0-x--|
|--0-x-xxxx-2-0-0-3--|
|--0-4-xxxx-1-0-0-1--|
|--0-x-xxxx-x-0-0-x--|
|------xxxx----------|
|------xxxx----------|

there.