Fear Before The March Of Flames - Sarah Goldfarb Where Are Your Manners Chords & Tabs

 

Sarah Goldfarb Where Are Your Manners Chords & Tabs

Fear Before The March Of Flames Chords & Tabs

Version: 1 Type: Tab 0 ratings
1 star 2 stars 3 stars 4 stars 5 stars
comments

Sarah Goldfarb Where Are Your Manners Tab

Tabbed by:Coheedandnofx6
AIM:xAutumnx Romance

Tuning: Drop DADGBe

                       
                              ::INTRO::
  Bass Plays Then...
e|--------------------------------------------------------------------|
B|--------------------------------------------------------------------|
G|--------------------------------------------------------------------|
D|---4-4-4-4-4-4-4--4-4-4-4-4-4-4--7-7-7-7-7-7-7--8-8-8-8-8-8-8-------|
A|--------------------------------------------------------------------|
D|--------------------------------------------------------------------|
[ Tab from: http://www.guitartabs.cc/tabs/f/fear_before_the_march_of_flames/sarah_goldfarb_where_are_your_manners_tab.html ]
e|--------------------------------------------------------------------|
B|--------------------------------------------------------------------|
G|--------------------------------------------------------------------|
D|---4-4-4-4-4-4-4--4-4-4-4-4-4-4--7-7-7-7-7-7-7--8-8-8-8-8-8-8/------|
A|--------------------------------------------------------------------|
D|--------------------------------------------------------------------|
 
               ::CHORUS::
e|----------------------------------------|
B|------------4-4-4-----------4-4-4-------|
G|------------2-2-2-----------2-2-2-------|
D|---0-0-0-0--0-0-0--0-0-0-0--0-0-0-------|
A|---0-0-0-0--0-0-0--0-0-0-0--0-0-0-------|
D|---0-0-0-0---------0-0-0-0--------------|
                                              After 2nd
e|-----------------------------------------| |---------|
B|-----------------------------------------| |---5^----|
G|-----------------------------------------| |---8^----|
D|-----------------------------------------| |---------|
A|---0-0-0--0--0-0-0--0--0-0-0--0--0-0-0---| |---------|
D|---0-0-0--0--0-0-0--0--0-0-0--0--0-0-0---| |---------|
PM   . . .  .  . . .  .  . . .  .  . . .

  ::VERSE::         
e|----5~-----|
B|----5~-----|
G|----7~-----|
D|----0~-----|
A|-----------|
D|-----------|

e|-----------------------------------------| 
B|-----------------------------------------| 
G|-----------------------------------------| 
D|-----------------------------------------| 
A|---1-0-1--0--1-0-1--0--1-0-1--0--1-0-1---| 
D|---1-0-1--0--1-0-1--0--1-0-1--0--1-0-1---| 
PM   . . .  .  . . .  .  . . .  .  . . .

e|------------------|
B|---7^--7p5--------|
G|-----------5------|
D|------------------|
A|------------------|
D|------------------|

e|-----------------------------------------------|
B|-----------------------------------------------|
G|-----------------------------------------------|
D|---x-x-x-4-1--x-x-x-4-1-x-x-x-4-1--x-x-x-4-1---|
A|-----------------------------------------------|
D|-----------------------------------------------|

e|-----------------------------------------------|
B|-----------------------------------------------|
G|-----------------------------------------------|
D|---2-2-2-2--2-2-2-2--2-2-2-2--2-2-2-2----------|
A|---2-2-2-2--2-2-2-2--2-2-2-2--2-2-2-2----------|
D|---2-2-2-2--2-2-2-2--2-2-2-2--2-2-2-2----------|

e|-----------------------|
B|-----------------------|
G|--------5-----5-4------|
D|-----------------------|
A|------5------5---------|
D|----5------5-----------|

PLEASE RATE
Comments