Fear Before The March Of Flames - On The Brightside She Could Choke Chords & Tabs

 

On The Brightside She Could Choke Chords & Tabs

Fear Before The March Of Flames Chords & Tabs

Version: 1 Type: Tab

On The Brightside She Could Choke Tab

I just took up the guitar a year ago, but I'll give this a shot. This has got to be my
favorite if not one of my favorite songs of all time. It's just that bad ass. I'll
finish the rest when I figure the rest out. ;-)

* = Harmonic

Intro:

E---0---0---0---0---0-------0---------------------------------------|
B-5-0-5-0-5-0-5-0-6-0-8-5-6-0-8-6-----------------------------------|
G-5---5---5---5---5---5-5-5---5-5-----------------------------------|
D------------------------------------------x2-----------------------|
A-------------------------------------------------------------------|
D-------------------------------------------------------------------|

"As He's Dying In His Dreams..."
E---0---0---0---0---0---0---0---0---0---0---0---0---0---0---0---0---|
B-5---5---5---5---5---5---5---5---6---6---6---6---8---8---8---8-----|
G-------------------------------------------------------------------|
D-------------------------------------------------------------------|
A-------------------------------------------------------------------|
D-------------------------------------------------------------------|
[ Tab from: http://www.guitartabs.cc/tabs/f/fear_before_the_march_of_flames/on_the_brightside_she_could_choke_tab.html ]
E---0---0---0---0---0---0---0---0---0---0---0---0---0---0---0---0---|
B-13--13--13--13--13--13--13--13--13--13--13--13--13--13--13--13----|
G-------------------------------------------------------------------|
D-------------------------------------------------------------------|
A-------------------------------------------------------------------|
D-------------------------------------------------------------------|

"Try And Breathe..."
E---0---0---0---0---0---0---0---0---0---0---0---0---0---0---0-------|
B-8---6---5---8---6---5---8---6---5---8---6---5---8---6---5---------|
G-------------------------------------------------------------------|
D-------------------------------------------------------------------|
A-------------------------------------------------------------------|
D-------------------------------------------------------------------|

E---0---0---0---0---0---0---0---0---0---0---0---0---0---------------|
B-5---5---6---6---8---8---6---6---5---5---6---6---5----5*-----------|
G-------------------------------------------------------------------|
D-------------------------------------------------------------------|
A-------------------------------------------------------------------|
D-------------------------------------------------------------------|


To Be Continued...