Fear Before The March Of Flames - Lisbon Girls Oh The Lisbon Girls Chords & Tabs

 

Lisbon Girls Oh The Lisbon Girls Chords & Tabs

Fear Before The March Of Flames Chords & Tabs

Version: 2 Type: Tab 0 ratings
1 star 2 stars 3 stars 4 stars 5 stars
comments

Lisbon Girls Oh The Lisbon Girls Tab

Tabbed by:coheedandnofx6
AIM: xautumnxromance

Tuning: DADGBe

              ::INTRO::
e|----------------------------------------|
B|---3-3-3--3-3-3--4-4-4-4-4-4-4-4--------|
G|---2-2-2--2-2-2--2-2-2-2-2-2-2-2--------|
D|---0-0-0--0-0-0--0-0-0-0-0-0-0-0--------|
A|---0-0-0--0-0-0--0-0-0-0-0-0-0-0--------|
D|---0-0-0--0-0-0--0-0-0-0-0-0-0-0--------|

                                            2nd time
e|-----------------------------------------|--------|
B|--------------5^-------------------------|--------|
G|--------------8^--------2p0--------------|--------|
D|---0-0--7-7---------0-0-----1p0-4p0-1-1--|--3-3---|
A|---0-0--7-7------------------------------|--------|
D|---0-0--7-7------------------------------|--------|
 
            ::VERSE::             
e|------------------------------|
B|------------------------------|
G|-------2p0--------------------|
D|---0-0-----1p0-4p0--1-1-1-1---|
A|------------------------------|
D|------------------------------|
PM                    . . . .      

          ::NEXT PART::
e|------------------------------------|
B|------------------------------------|
G|------------------------------------|
D|------------------------------------|
A|---0-0-3-0-0-0-1-0-0-1-0-0-0-3-0----|
D|---0-0-3-0-0-0-1-0-0-1-0-0-0-3-0----|
PM   . . . . . . . . . . . . . . .
[ Tab from: http://www.guitartabs.cc/tabs/f/fear_before_the_march_of_flames/lisbon_girls_oh_the_lisbon_girls_tab_ver_2.html ]
   
e|------------------------------------------|
B|---3-3--3-3-3-3-3--3-3--3-3-3-3-3---------|
G|---2-2--2-2-2-2-2--2-2--2-2-2-2-2---------|
D|---0-0--0-0-0-0-0--0-0--0-0-0-0-0---------|
A|---0-0--0-0-0-0-0--0-0--0-0-0-0-0---------|
D|---0-0--0-0-0-0-0--0-0--0-0-0-0-0---------|

  Guitar #1                  ::Then This::
e|---------------------------------------------------------------------------|
B|---------------------------------------------------------------------------|
G|---------------------------------------------------------------------------|
D|---5-5-5-5-5-5-5-5-5-5-5--7-7-7-7-7-7-7-7-7-7-7--2-2-2-2-2-2-2-2-2-2-2-----|
A|---3-3-3-3-3-3-3-3-3-3-3--5-5-5-5-5-5-5-5-5-5-5--0-0-0-0-0-0-0-0-0-0-0-----|
D|---------------------------------------------------------------------------|

e|-----------------------------|
B|-----------------------------|
G|-----------------------------|
D|---3-3-3-3-3-3-3-3-3-3-3-----|
A|---1-1-1-1-1-1-1-1-1-1-1-----|
D|-----------------------------|
   Guitar #2
e|---------------------------------------------|
B|---------------------------------------------|
G|---4---------6---------8---------10----------|
D|---x--(16x)--x--(16x)--x--(16x)--x--(16x)----|
A|---2---------4---------6---------8-----------|
D|---------------------------------------------|

    ::OUTRO::
    Guitar #1
e|-------------|
B|-------------|
G|-------------|
D|-------------|
A|---1/7--0~---|
D|---1/7--0~---|

  Guitar #2
e|------------------------------------|
B|------------------------------------|
G|-------6p0-4p0-------6p0-4p0--------|
D|---0-0---------7p0-0---------7p0----|
A|------------------------------------|
D|------------------------------------|
Comments