Fear Before The March Of Flames - Hey Kid Im A Computer Stop All The Donwloading Chords & Tabs

 

Hey Kid Im A Computer Stop All The Donwloading Chords & Tabs

Fear Before The March Of Flames Chords & Tabs

Version: 1 Type: Tab 0 ratings
1 star 2 stars 3 stars 4 stars 5 stars
comments

Hey Kid Im A Computer Stop All The Donwloading Tab

Fear Before the March of Flames
Hey Kid. I'm a Computer. Stop All the Downloading.
Art Damage
Tabbed by Robert Lydecker (that guy with those tight ass pants)
Tuning: DADGBe


This is personally my favorite song off of Art Damage, though none of their
new songs compare to their old ones. 


Intro:
(Just do random pickslides until singing starts)

Verse:  (On the count of three...")
|----------------------------------------------------------------|
|----------------------------------------------------------------|
|--10-10-10-10-10-10-10-10-10-10---9--9--9--9--9--9--9--9--9--9--|
|--7--7--7--7--7--7--7--7--7--7----8--8--8--8--8--8--8--8--8--8--|
|--0--0--0--0--0--0--0--0--0--0----8--8--8--8--8--8--8--8--8--8--|
|--0--0--0--0--0--0--0--0--0--0----8--8--8--8--8--8--8--8--8--8--|

Chorus:  (We sluts, we have fattened...")
|-----------------------------------------------------------
|--9-9-9-9-9-9-9-9--10-10-10-10-10-10-10-10-7-7-7-7-7-7-7-7-
|--8-8-8-8-8-8-8-8--7--7--7--7--7--7--7--7--8-8-8-8-8-8-8-8-
|-----------------------------------------------------------
|-----------------------------------------------------------
|-----------------------------------------------------------
[ Tab from: http://www.guitartabs.cc/tabs/f/fear_before_the_march_of_flames/hey_kid_im_a_computer_stop_all_the_donwloading_tab.html ]
Chorus cont.
---------------------------|
-10-10-10-10-10-10-10-10---|
-x--x--x--x--x--x--x--x----|
-8--8--8--8--8--8--8--8----|
---------------------------|
---------------------------|

Post-Chorus:
|------|--|-------------------------------|
|-10---|--|-------------------------------|
|-x----|--|----7-0----------7-0-----------|
|-8----|x8|----------4-0----------4-0-----|
|-0--0-|--|--6-----6------6-----6-----4-0-|
|-0--0-|--|---------------------------4-0-|

Bridge: ("You can't buy love, you can't sell feelings")
|----------------------------------------------------|
|-10-10-10-10-10-10-10-10-10-10----------------------|
|-10-10-10-10-10-10-10-10-10-10--9-9-9-9-9-9-9-9-9-9-|
|-0--0--0--0--0--0--0--0--0--0---8-8-8-8-8-8-8-8-8-8-|
|-0--0--0--0--0--0--0--0--0--0---8-8-8-8-8-8-8-8-8-8-|
|-0--0--0--0--0--0--0--0--0--0---8-8-8-8-8-8-8-8-8-8-|

Fill 1:
|-------------------------------------|
|-------------------------------------|
|-------------------------------------|
|-------------------------------------|
|--7h8---7h8---7h8---7h8---7h8---7h8--|
|------0-----0-----0-----0-----0-----0|

Fill 2: Chords
|--------------------------------------|
|-10-----------------12----------------|
|-x------------------x-----------------|
|-8------------------10----------------|
|-0------------------0-----------------|
|-0------------------0-----------------|


I think that's pretty much it, there might be some part where there is a variation on
Fill 2. I'm not going to say what percent correct this is, that's for you to tell me.
Comments