Fear Before The March Of Flames - Given To Dreams Chords & Tabs

 

Given To Dreams Chords & Tabs

Fear Before The March Of Flames Chords & Tabs

Version: 1 Type: Tab 0 ratings
1 star 2 stars 3 stars 4 stars 5 stars
comments

Given To Dreams Tab

Tabbed by:Coheedandnofx6
AIM: xAutumnx Romance

Tuning: Drop DADGBe
   
        ::INTRO::
e|-----------------------|
B|------------------(4x)-|
G|-----------------------|
D|----2-2-2-2-0~---------|
A|----2-2-2-2-0~---------|
D|----2-2-2-2-0~---------|
                    ::VERSE 1::
e|---------------------------------------------------|
B|----------------------------------------------(6x)-|
G|---------------------------------------------------|
D|---6-6-6-------6-6-6-------6-6-6-------6-6-6-6-7---|
A|---------6h7p6-------6h7p6-------6h7p6-------------|
D|---------------------------------------------------|
     
e|----------------|
B|----7-7-7-7-----|
G|----6-6-6-6-----|
D|----0-0-0-0-----|
A|----------------|
D|----------------|

e|-----------------------|
B|-----------------------|
G|-----------------------|
D|----2-2-2-2-0~---------|
A|----2-2-2-2-0~---------|
D|----2-2-2-2-0~---------|            
   
     ::VERSE 2::                       
e|----------------|
B|---7--7-7-7-7---|
G|---6--6-6-6-6---|
D|---0--0-0-0-0---|
A|-----------(6x)-|
D|----------------|
[ Tab from: http://www.guitartabs.cc/tabs/f/fear_before_the_march_of_flames/given_to_dreams_tab.html ]
e|-----------------------|
B|-----------------------|
G|-----------------------|
D|----2-2-2-2-0~---------|
A|----2-2-2-2-0~---------|
D|----2-2-2-2-0~---------|   
 
                     ::CHORUS::                     | Ending 1  | Ending 2|
e|--------------------------------------------------|---x-x-x---|---------|
B|--------------------------------------------------|---x-x-x---|---------|
G|--------------------------------------------------|---x-x-x---|---------|
D|--2p0-0--2p0-0--2p0-0--2p0-0--2p0-0--2p0-0--2p0-0-|---x-x-x---|--2p0-0--|
A|--2p0-0--2p0-0--2p0-0--2p0-0--2p0-0--2p0-0--2p0-0-|---x-x-x---|--2p0-0--|
D|--2p0-0--2p0-0--2p0-0--2p0-0--2p0-0--2p0-0--2p0-0-|---x-x-x---|--2p0-0--|
    
  ::POST CHORUS::
e|----------------|
B|----------------|
G|---3------------| Play that a couple of times
D|-----4-3-4------| and then play it with some
A|----------------| artificial harmonics.
D|----------------|
PM   . . . .

     ::INTERLUDE::
e|--------------------|
B|--------------(15x)-|
G|--------------------|
D|---19-17-19-20-19---|
A|--------------------|
D|--------------------|
  
                           ::OUTRO::
e|--------------------------------------------------------------|
B|---------------------------------------------------------(2x)-|
G|--------------------------------------------------------------|
D|---2-2-2-2-2-2-2-2-2-2-2-2--0-0-0-0-0-0-0-0-0-0-0-0-0-0-0-0---|
A|---2-2-2-2-2-2-2-2-2-2-2-2--0-0-0-0-0-0-0-0-0-0-0-0-0-0-0-0---|
D|---2-2-2-2-2-2-2-2-2-2-2-2--0-0-0-0-0-0-0-0-0-0-0-0-0-0-0-0---|


e|------------------------------|
B|----5-5-5-5--5^-5^-5^-5^------|
G|------------------------------|
D|------------------------------|
A|------------------------------|
D|------------------------------|

e|----------------------------------------|
B|----------------------------------------|
G|----------------------------------------|
D|---2-2-2-2--2-2-2-2--0-0-0-0--0-0-0-0---|
A|---2-2-2-2--2-2-2-2--0-0-0-0--0-0-0-0---|
D|---2-2-2-2--2-2-2-2--0-0-0-0--0-0-0-0---|
 
PLEASE RATE
Comments