Fear Before The March Of Flames - Fashion Tips Baby Chords & Tabs

 

Fashion Tips Baby Chords & Tabs

Fear Before The March Of Flames Chords & Tabs

Version: 1 Type: Tab 0 ratings
1 star 2 stars 3 stars 4 stars 5 stars
comments

Fashion Tips Baby Tab

Tabbed by: Coheedandnofx6
AIM: xAutumnx Romance

Tuning: Drop DADGBe

             ::INTRO::
e|----------------1-1-----1-1-----1----|
B|----------------5-5-----5-5-----5----|
G|---4---------------------------------|
D|---4-(16x)---------------------------|
A|---2--------0-0-----0-0-----0-0------|
D|------------0-0-----0-0-----0-0------|
PM            . .     . .     . .


e|-------------------|
B|-------------------|
G|-------------------|
D|-------------------|
A|---0-0--0-0--0-0---|
D|---0-0--0-0--0-0---|
PM   . .  . .  . . 
[ Tab from: http://www.guitartabs.cc/tabs/f/fear_before_the_march_of_flames/fashion_tips_baby_tab.html ]
                ::VERSE::
  Guitar #1                        
e|----------------------------------7p0---------|
B|------4p0-6p0-7p0-6p0-4p0-4p0-4p0-----4p0-----|
G|---4^-----------------------------------------|
D|----------------------------------------------|
A|----------------------------------------------|
D|----------------------------------------------|
  Guitar #2
e|----------------------------------------------|
B|----------------------------------------------|
G|----------------------------------------------|
D|---5-5-5-5-5-5-5-5-5/---5-5-5-5-5-5-5-5-5/----|
A|---3-3-3-3-3-3-3-3-3/---3-3-3-3-3-3-3-3-3/----|
D|----------------------------------------------|

e|----------------------------------------------|
B|----------------------------------------------|
G|----------------------------------------------|
D|---2-2-2-2-2-2-2-2-2/---2-2-2-2-2-2-2-2-2/----|
A|---0-0-0-0-0-0-0-0-0/---0-0-0-0-0-0-0-0-0/----|
D|----------------------------------------------|

e|----------------------|
B|----------------------|
G|----------------------|
D|---5-(32x)--2-(32x)---|
A|---3--------0---------|
D|----------------------|
        ::BRIDGE::
e|---------------------------|
B|---5--5-5---5--5-5---------|
G|---3--3-3---3--3-3--(12x)--|
D|---0--0-0---0--0-0---------|
A|---0--0-0---0--0-0---------|
D|---------------------------|

          ::OUTRO::
  Guitar #1
e|-------------------------------|
B|-------------------------------|
G|---5--5-5-------2--2-2---------|
D|---5--5-5-(4x)--2--2-2-(4x)----|
A|---3--3-3-------0--0-0---------|
E|-------------------------------|

e|---5p4---5---|
B|-------4-----|
G|-------------|
D|-------------|
A|-------------|
D|-------------|


PLEASE RATE
Comments