Fear Before The March Of Flames - A Tyrant Meets His Maker Chords & Tabs

 

A Tyrant Meets His Maker Chords & Tabs

Fear Before The March Of Flames Chords & Tabs

Version: 1 Type: Tab 0 ratings
1 star 2 stars 3 stars 4 stars 5 stars
comments

A Tyrant Meets His Maker Tab

Tabbed by:Coheedandnofx6
AIM: xAutumnx Romance

This is a pretty nice instrumental with some echo effects on the mutes. It's kinda
relaxing and I think fear before did a nice job on it. The X's are mutes over the
frets indicated.

In order of appearance...
[ Tab from: http://www.guitartabs.cc/tabs/f/fear_before_the_march_of_flames/a_tyrant_meets_his_maker_tab.html ]
  Guitar #1 (play till end)
e|------------------------------|
B|------------5-5-5-5-----------|
G|------------5-5-5-5--4-5------|
D|------------------------------|
A|-------3~---------------------|
E|---5~-------------------------|
              X X X X
 
  Guitar #2 (play 3 measures)
e|----------------------------------------------------|
B|-------------------------------5-5-5-5--4-4-4-4-----|
G|------------9~-----------7~----5-5-5-5--4-4-4-4-----|
D|---7-9-10-7-----7-9-10-7----------------------------|
A|----------------------------------------------------|
E|----------------------------------------------------|
                                 X X X X  X X X X

  Guitar #3(Maybe Bass[Play till end]) 
e|--------------------------------------------|
B|--------------------------------------------|
G|--------------------------------------------|
D|--------------------------------------------|
A|---12-12-12-12/5-5-5-5-5-3-3-3-3-7-7-7-7----|
E|--------------------------------------------|

  Guitar #4 (play till end)
e|--------------------------------------------|
B|--------------------------------------------|
G|--------------------------------------------|
D|---10-10-10-10-12-12-12-12-7-7-7-7-9-9-9-9--|
A|--------------------------------------------|
E|--------------------------------------------|

Have Fun PLEASE RATE
Comments