Fear Before The March Of Flames - A Shoreline Perspective Chords & Tabs

 

A Shoreline Perspective Chords & Tabs

Fear Before The March Of Flames Chords & Tabs

Version: 1 Type: Tab 0 ratings
1 star 2 stars 3 stars 4 stars 5 stars
comments

A Shoreline Perspective Tab

  Intro/Verse
e|--------------------------------------------------------------|
B|--------------------------------------------------------------|repeat
G|-9-9--9-9--9-9--9-9--9---9--10-10-10-10-10-10-10-10-10-10-10--|
D|-x-x--x-x--x-x--x-x--x-0-x--x--x--x--x--x--x--x--x--x--x--x---|
A|-x-x--x-x--x-x--x-x--x-0-7--8--8--8--8--8--8--8--8--8--8--8---|
D|-7-7--7-7--7-7--7-7--7-0--------------------------------------|
  
  Chorus
e|----------------------------0~---|
B|---6p0-5p0-8p5-6-6-5-5/3-3--3~---|repeat
G|----------------------------4~---|
D|---------------------------------|
A|---------------------------------|
D|---------------------------------|
[ Tab from: http://www.guitartabs.cc/tabs/f/fear_before_the_march_of_flames/a_shoreline_perspective_tab.html ]
e|-------------------------------------|
B|---6p0-6p0---------8p0-8p0-6p0-6p0---|repeat
G|-----------5p0-5p0-------------------|
D|-------------------------------------|
A|-------------------------------------|
D|-------------------------------------|
  Verse
e|--------------------------------------------------------------|
B|--------------------------------------------------------------|repeat
G|-9-9--9-9--9-9--9-9--9---9--10-10-10-10-10-10-10-10-10-10-10--|
D|-x-x--x-x--x-x--x-x--x-0-x--x--x--x--x--x--x--x--x--x--x--x---|
A|-7-7--x-x--7-7--x-x--x-0-7--8--8--8--8--8--8--8--8--8--8--8---|
D|------7-7-------7-7--7-0--------------------------------------|
  Interlude
e|-----------------------------------------------------------------|
B|-----------------------------------------------------------------|
G|--------12-------------------------------------------------------|
D|---9-10----10-9-10--3~--7-7-7-7-7-7-7-7-7--3-3-3-3-3-3-3-3-3-3---|
A|--------------------3~--7-7-7-7-7-7-7-7-7--3-3-3-3-3-3-3-3-3-3---|
D|--------------------3~--7-7-7-7-7-7-7-7-7--3-3-3-3-3-3-3-3-3-3---|
  Breakdown
e|-------------------------------------------------------|
B|--------10-10------10-10------10-----------------------|repeat
G|--------x--x-------x--x-------x------------------------|
D|---0-0--7--7--0-0--7--7--0-0--7--3-3-3-3-3-3-3-3-3-3---|
A|---0-0--------0-0--------0-0-----3-3-3-3-3-3-3-3-3-3---|
D|---0-0--------0-0--------0-0-----3-3-3-3-3-3-3-3-3-3---|

   1                                                                      
e|----------------------------------------------------------------------|
B|---6p0-6p0---------8p0-8p0-6p0-6p0-5-5-5-5-5-5-5-5-6-6-6-6-6-6-6-6^---|
G|-----------5p0-5p0----------------------------------------------------|
D|----------------------------------------------------------------------|
A|----------------------------------------------------------------------|
D|----------------------------------------------------------------------|
  2
e|------------|
B|------------|repeat
G|------------|
D|--3-3-3-3---|
A|--3-3-3-3---|
D|--3-3-3-3---|

e|-------------------------------------------------------------|
B|-------------------------------------------------------------|repeat
G|---9-9--9-9--14-14--14-14--12-12-12--7-7-7-7-7--9-9-9-9-9----|
D|---x-x--x-x--x--x---x--x---x--x--x---x-x-x-x-x--x-x-x-x-x----|
A|---7-7--x-x--12-12--12-12--10-10-10--5-5-5-5-5--7-7-7-7-7----|
D|--------7-7--------------------------------------------------|

e|-------------------------------|
B|-------------------------------|
G|---5-5-5-5-5-5-5-5-5-5-5-5-5---|
D|---x-x-x-x-x-x-x-x-x-x-x-x-x---|
A|---3-3-3-3-3-3-3-3-3-3-3-3-3---|
D|-------------------------------|
Comments