Feable Weiner - Sally Be Chords & Tabs

 

Sally Be Chords & Tabs

Feable Weiner Chords & Tabs

Version: 1 Type: Tab 0 ratings
1 star 2 stars 3 stars 4 stars 5 stars
comments

Sally Be Tab

Feable Weiner
Sally Be
Dear Hot Chick

This band is awsmoe i just got their cd and found there were no tabs for them on here
soooooo........ here it goes!

Intro
|------------------------------------|
|------------------------------------|
|------------------------------------|
|----------------------------------2-|
|-----------------0-0-4-0-2-2-4->6---|
|-0-0-4-0-0-4-0-4--------------------| x4

Verse (palm-mute)                         this intro is really awsome!
|------------------------------------|
|------------------------------------|
|------------------------------------|
|----------------------------------2-|
|-----------------0-0-4-0-2-2-4->6---|
|-0-0-4-0-0-4-0-4--------------------| x5

Final time (palm-muted)
|---------------------------------------------------------|
|---------------------------------------------------------|
|---------------------------------------------------------|
|-----------------------------1-------1-------------------|
|-----------------0-0-4-0-2-2---2-2-2---2-2-2-0-0---------|
|-0-0-4-0-0-4-0-4---------------------------------4-4-2-2-| x1

Chorus (work out the rhythm)
|-------------|
|-------------|
|-------------|
|-9-9-6-4-2-4-|
|-7-6-4-2-0-2-|
|-------------| x2

(work out the rhythm)
|-------|
|-------|
|-------|
|-9-2-4-|
|-7-0-2-|
|-------|

Pre-verse
|------------------------------------|
|------------------------------------|
|------------------------------------|
|----------------------------------2-|
|-----------------0-0-4-0-2-2-4->6---|
|-0-0-4-0-0-4-0-4--------------------| x2

Verse (palm-mute)
|------------------------------------|
|------------------------------------|
|------------------------------------|
|----------------------------------2-|
|-----------------0-0-4-0-2-2-4->6---|
|-0-0-4-0-0-4-0-4--------------------| x5
[ Tab from: http://www.guitartabs.cc/tabs/f/feable_weiner/sally_be_tab.html ]
Final time (palm-muted)
|---------------------------------------------------------|
|---------------------------------------------------------|
|---------------------------------------------------------|
|-----------------------------1-------1-------------------|
|-----------------0-0-4-0-2-2---2-2-2---2-2-2-0-0---------|
|-0-0-4-0-0-4-0-4---------------------------------4-4-2-2-| x1

Chorus (work out the rhythm)
|-------------|
|-------------|
|-------------|
|-9-9-6-4-2-4-|
|-7-6-4-2-0-2-|
|-------------|   x2

(work out the rhythm)
|-----------|
|-----------|
|-----------|
|-9-2-4-----|
|-7-0-2-----|
|-----------|

Mid Section
|---------------------------|
|---------------------------|
|---------------------------|
|-2--6-4--9-9--6--2--6-4--9-|
|-0--4-2--6-7--4--0--4-2--7-|
|---------------------------|   x2

|------------------------------------|
|------------------------------------|
|------------------------------------|
|----------------------------------2-|
|-----------------0-0-4-0-2-2-4->6---|
|-0-0-4-0-0-4-0-4--------------------| x2

|----------------------------------------------------------------------------|
|----------------------------------------------------------------------------|
|-13--11-9---6--7-8---13--11-9---14-14-14-14-13-11---16-16-16-14-13-14-14----|
|----------------------------------------------------------------------------|
|11-9-7-4-9-6-11-9-7-12-12-12-12-11-9-14-14-14-12-11-12-12-12-11-9-14-14-14--|


|----------------------------|
|-------------------------17-|
|----------------13-14-13----|
|-------13-14-16-------------|
|-14-16----------------------|
|----------------------------|

Outro (same as intro)
|------------------------------------|
|------------------------------------|
|------------------------------------|
|----------------------------------2-|
|-----------------0-0-4-0-2-2-4->6---|
|-0-0-4-0-0-4-0-4--------------------| x6 (until end)

yepp thats the hole entire song...check out these guys on purevolume.com they rock!
Comments