Fathead - Id Rather Be Chords & Tabs

 

Id Rather Be Chords & Tabs

Fathead Chords & Tabs

Version: 1 Type: Tab 0 ratings
1 star 2 stars 3 stars 4 stars 5 stars
comments

Id Rather Be Tab

Tab for I'd Rather Be(We Don't Get Down)
Transcribed By MEaty

Tune to open G tuning
|-------D------------------------|           ~ = Pull off
|-------B------------------------|           > = Bend Up
|-------G------------------------|          >> = Double bend up
|-------D------------------------|           X = Muted Note
|-------G------------------------|          // = Slide up
|-------D----------|          \\-| = Slide Down
                               + = Hammer On
Opening Riff
|--------------------------0-----|
|--------------------------0-----|
|---5~3~0----0-------------0-----|
|----------5-----3>~0------0-----|
|----------------------3>>-0-----|
|--------------------------------|


|-0--------0-X-------0-------0-X----------0----0----0---|
|-0--------0-X-------0-------0-X----------3////5\\\\3~0-|
|-0--------0-X-------0-------0-X----------0----0----0---|
|-0--------0-X-------0-------0-X----------0----0----0---|
|-0--------0-X-------0-------0-X----------3////5\\\\3~0-|
|-------------------------------------------------------|
                  ^ ^ ^ ^ ^ ^
                  ^ ^ ^ ^ ^ ^
             Repeat this three times


Next:

First Chorus
We  Dont  Get  down  like  we  used  to we used to be To-
|----0X-------------------------------------------------|
|----0X-------------------------------------------------|
|----0X-------------------------------------------------|
|----0X-------------------------------------------------|
|----0X-------------------------------------------------|
|-------------------------------------------------------|

-Gether all the time  But  now I  find We    dont  get
|-0--------0-X-------0-------0-X----------0----0----0---|
|-0--------0-X-------0-------0-X----------3////5\\\\3~0-|
|-0--------0-X-------0-------0-X----------0----0----0---|
|-0--------0-X-------0-------0-X----------0----0----0---|
|-0--------0-X-------0-------0-X----------3////5\\\\3~0-|
|-------------------------------------------------------|

Down like we used to be together  all   the   Time    But
|-0--------0-X-------0-------0-X-------------0----0-X---|
|-1--------1-X-------1-------1-X-------------1----1-X---|
|-0--------0-X-------0-------0-X-------------0----0-X---|
|-3--------3-X-------3-------3-X-------------3----3-X---|
|-------------------------------------------------------|
|-------------------------------------------------------|

 Now I find We Don't Get   Down    Like  We   used to We
|-0--------0-X-------0-------0-X-------------0----0-X---|
|-1--------1-X-------1-------1-X-------------1----1-X---|
|-0--------0-X-------0-------0-X-------------0----0-X---|
|-2--------2-X-------2-------2-X-------------2----3-X---|
|-------------------------------------------------------|
|-------------------------------------------------------|

Don't get down     Like we used to     we  used to be To-
|-0--------0-X-------0-------0-X----------0----0----0---|
|-0--------0-X-------0-------0-X----------3////5\\\\3~0-|
|-0--------0-X-------0-------0-X----------0----0----0---|
|-0--------0-X-------0-------0-X----------0----0----0---|
|-0--------0-X-------0-------0-X----------3////5\\\\3~0-|
|-------------------------------------------------------|
[ Tab from: http://www.guitartabs.cc/tabs/f/fathead/id_rather_be_tab.html ]
-Gether all the time  But  now I  find We    dont  get
|-0--------0-X-------0-------0-X----------0----0----0---|
|-0--------0-X-------0-------0-X----------3////5\\\\3~0-|
|-0--------0-X-------0-------0-X----------0----0----0---|
|-0--------0-X-------0-------0-X----------0----0----0---|
|-0--------0-X-------0-------0-X----------3////5\\\\3~0-|
|-------------------------------------------------------|

Down like we used to be together  all   the   Time    But
|-0--------0-X-------0-------0-X-------------0----0-X---|
|-1--------1-X-------1-------1-X-------------1----1-X---|
|-0--------0-X-------0-------0-X-------------0----0-X---|
|-3--------3-X-------3-------3-X-------------3----3-X---|
|-------------------------------------------------------|
|-------------------------------------------------------|
 Now I find We Don't Get   Down    Like  We   used    to
|-0--------0-X-------0--------------0X------------------|
|-1--------1-X-------1--------------1X------------------|
|-0--------0-X-------0--------------0X------------------|
|-2--------2-X-------2--------------2X------------------|
|-------------------------------------------------------|
|-------------------------------------------------------|

Verses:
There are two different guitar effects used in the verses.
The first is created by using a delay with some overdrive
and hitting this chord:
|-----3------|
|-----3------|
|-----3------|
|-----3------|
|------------|
|------------|
The second effect is created by  using a whammy pedal,overdrive
and delay to create spacey sound effects by hitting notes,
swelling them  up with the volume knob(on the guitar) and bending
them up or down with the whammy pedal....Just be creative in this
area.

Second Chorus:Same as the first except you play with the first
line of the chorus with this:  We--

Don't get down     Like we used to     we  used to be To-
|-0--------0-X-------0-------0-X----------0----0----0---|
|-0--------0-X-------0-------0-X----------3////5\\\\3~0-|
|-0--------0-X-------0-------0-X----------0----0----0---|
|-0--------0-X-------0-------0-X----------0----0----0---|
|-0--------0-X-------0-------0-X----------3////5\\\\3~0-|
|-------------------------------------------------------|

End of Second verse:
|------3-------------------|
|--------5~3----3----3-----|
|--3+4-------5--3+4--3+4---|
|--------------------------|
|--------------------------|
|--------------------------|
Third Chorus:
Same as Second Chorus

Bridge:
During the bridge there is an effect created by scratching
The strings with the guitar pick while some overdrive and
heavy delay is on.

End of Bridge:
|-----------------|
|-----------------|
|-----------------|
|-----5--2--------|
|-3---------3>>---|
|-5---------------|

Last Chorus:
Same as second and third
except last chord progression
goes like this:

 Now I find We Don't Get   Down    Like  We   used to We
|-0--------0-X-------0-------0-X-------------0----0-X---|
|-1--------1-X-------1-------1-X-------------1----1-X---|
|-0--------0-X-------0-------0-X-------------0----0-X---|
|-2--------2-X-------2-------2-X-------------2----3-X---|
|-------------------------------------------------------|
|-------------------------------------------------------|

Repeat and Fade

Enjoy!!!!
Comments