Fat Fetish - Soul Pimp Chords & Tabs

 

Soul Pimp Chords & Tabs

Fat Fetish Chords & Tabs

Version: 1 Type: Bass Tab 0 ratings
1 star 2 stars 3 stars 4 stars 5 stars
comments

Soul Pimp Bass Tab

          Fat Fetish - Soul Pimp
          
          Tabbed by Billy Bob
          ----------
          
          I know I've screwed up Fat Fetish tabs before, but this one 
          is 900% correcT!!!
          ROCK ON FAT FETISH!!!!! You have to see them live!!!!!!!!!
          
          Intro:
          G:------9-9-9-9--------------
          D:--------------2------------
          A:-----------------4---------
          E:-------------------4-5---3-
          
          Verse: play x 3
          G:--------------------------------------------
          D:--------------------------------------------
          A:--4----------4-----------4----------4-------
          E:----4-5---3----4-5---3-----4-5---3----4-5555
          
          Chorus:
          G:--------------------------------
          D:---------4------4------4-------- 
          A:--------------------------------
          E:-----------------------------3>-
[ Tab from: http://www.guitartabs.cc/tabs/f/fat_fetish/soul_pimp_btab.html ]
Comments