Fastway - Say What You Will Chords & Tabs

 

Fastway Chords & Tabs

Version: 1 Type: Tab 0 ratings
1 star 2 stars 3 stars 4 stars 5 stars
comments

Say What You Will Tab

Fastway "say what you will"
Tabbed by Bullwinkle

Main Riff
e-----------------------------------------------|
b--------5-6-7-5h6-5----------------------------|
g--------------------7-5------7--7--5-----2--2--|
d------------------------7----7--7--5-----2--2--|
a-----------------------------5--5--3---0-0--0--|
e-----------------------------------------------|

Verses:
e----------------------------------------------------|
b----------------------------------------------------|
g--------5---7-----7---5-----5--7-----7--5--------2--|
d--------5---7-----7---5-----5--7-----7--5--------2--|
a-----0--3---5--0--5---3--0--3--5--0--5--3-----0--0--|
e----------------------------------------------------|

for the lead you go into a B chord
i hit the first b chord then start my solo a hair late
due to one guitar player band
usually make it up depending on how many drinks i 
consumed before or during a show
but its close
i slide into this from my b chord
e-----------------------------------------
b----------------------------------------
g------------------7---7--9(trem out)-----
d---------7---7--9---9------------------
a---7-8-9---9---------------------------
e----------------------------------------


e-------7-----7---------------------------------
b-------7-----7--10-10b-10---10b-10-7------------
g----9b----9b-------------------------10--9--7--
d----------------------------------------------9--
a------------------------------------------------
e-------------------------------------------------

[ Tab from: http://www.guitartabs.cc/tabs/f/fastway/say_what_you_will_tab.html ]
e-------------------------------------------------
b-------------------------------------------------
g---7-7-6-6-4-4-2-4-4b-4-2-4-----------------------
d--------------------------------------------------
a-----------------------------------------------------
e-----------------------------------------------------


e-------7-----7-----7-------------------------------------
b-------7-----7-----7-------------------------------------
g----9b----9b----9b-----9b-(bend the hell out of this one)-
d-----------------------------------------------------------
a-----------------------------------------------------------
e-----------------------------------------------------------

rhythem goes up to D 
e--------10----------------------------------
b--------10--about 8 times---------------------------
g----12b----------------------------------
d------------------------------------------
a------------------------------------------------
e-------------------------------------------------


e--------------------------------------------------------
b-------------------------------------------------------
g----9-9-9-9-9----7-7-7-7-7---6-6-6-6-6-6---4-4-4-4-4-------
d---------------------------------------------------------
a----------------------------------------------------------
e-------------------------------------------------------


e----------------------------------------------------------
b---------------------------------------------------------
g----9-9-9-9-9----7-7-7-7-7---6-6-6-6-6-6---4----2-2--------
d------------------------------------------------2-2--------
a------------------------------------------------0-0---------
e----------------------------------------------------------

into main riff
finish song

Questions comment correction email bullwinklemoose101@yahoo.com
Comments