Fastrain - Feeling Chords & Tabs

 

Feeling Chords & Tabs

Fastrain Chords & Tabs

Version: 1 Type: Tab 2 ratings
1 star 2 stars 3 stars 4 stars 5 stars
comments

Feeling Tab

   
#----------------------------------PLEASE NOTE---------------------------------#
#This file is the author's own work and represents their interpretation of the #
#song. You may only use this file for private study, scholarship, or research. #
#------------------------------------------------------------------------------#

FEELING
As recorded by Fastarin


	



C
x 3 x 5 5 3
	
G5
3 5 5 x x x
	
A5
5 7 7 x x x

Gtr I (E A D G B E) - 'rythm'

   Verse
    Q=90
   4/4
    Gtr I
    E S S Q  E S S S S E   E S S Q  E S S E E   E S S Q  E S S S S E
||-----------------------|--------------------|-----------------------|
||o----------------------|--------------------|-----------------------|
||-----------------------|--------------------|-----------------------|
||--------5--------------|-------5------------|-------5---------------|
||o---5h7----5-5-5-9-7-5-|---5h7----5-5-5-2-5-|---5h7----5-5-5-9-7-5--|
||--0--------------------|-0------------------|-0---------------------|


                       Chorus
                           C
                                  PM         PM
  E S S H.       6x     Q  Q  E E E Q  E S S E E E S S E
|----------------||-||--3--3-----------------------------|
|---------------o||-||o-5--5-----------------------------|
|----------------||-||--5--5-----------------------------|
|-------5--------||-||--3--3--5-5-x-7--7-5-7-x-7-7-5-7---|
|---5h7---------o||-||o-3--3--5-5-x-7--7-5-7-x-7-7-5-7---|
|-0--------------||-||--------3-3-x-5--5-3s5-x-5-5-3s5---|


            PM
  Q  Q  E E E Q  E E E E E E E
|-3--3--------------------------|
|-5--5--------------------------|
|-5--5-----------------------5--|
|-3--3--5-5-x-7----------5-7----|
|-3--3--5-5-x-7------5-7--------|
|-------3-3-x-5--5-8------------|


            PM           PM                      PM
  Q  Q  E E E Q    E S S E E E S S E   Q  Q  E E E Q  E E E E E E E
|-3--3-----------|-------------------|-3--3-----------5-8-5-----8-5---||
|-5--5-----------|-------------------|-5--5-----------------5-8------o||
|-5--5-----------|-------------------|-5--5---------------------------||
|-3--3--5-5-x-7--|-7-5-7-x-7-7-5-7---|-3--3--5-5-x-7------------------||
|-3--3--5-5-x-7--|-7-5-7-x-7-7-5-7---|-3--3--5-5-x-7-----------------o||
|-------3-3-x-5--|-5-3s5-x-5-5-3s5---|-------3-3-x-5------------------||


   Verse
    E S S Q  E S S S S E   E S S Q  E S S E E
||-----------------------|--------------------|
||o----------------------|--------------------|
||-----------------------|--------------------|
||--------5--------------|-------5------------|
||o---5h7----5-5-5-9-7-5-|---5h7----5-5-5-2-5-|
||--0--------------------|-0------------------|


  E S S Q  E S S S S E   E S S H.     6x
|----------------------|--------------||
|----------------------|-------------o||
|----------------------|--------------||
|-------5--------------|-------5------||
|---5h7----5-5-5-9-7-5-|---5h7-------o||
|-0--------------------|-0------------||


   Chorus
              PM           PM                      PM
    Q  Q  E E E Q    E S S E E E S S E Q    Q  E E E Q  E   E E E E E E
||--3--3-----------|-------------------3--|-3-------------|--------------|
||o-5--5-----------|-------------------5--|-5-------------|--------------|
||--5--5-----------|-------------------5--|-5-------------|-----------5--|
||--3--3--5-5-x-7--|-7-5-7-x-7-7-5-7---3--|-3--5-5-x-7----|-------5-7----|
||o-3--3--5-5-x-7--|-7-5-7-x-7-7-5-7---3--|-3--5-5-x-7----|---5-7--------|
||--------3-3-x-5--|-5-3s5-x-5-5-3s5------|----3-3-x-5--5-|-8------------|


            PM           PM                      PM
  Q  Q  E E E Q    E S S E E E S S E Q    Q  E E E Q  E   E E E E E E
|-3--3-----------|-------------------3--|-3-----------5-|-8-5-----8-5--||
|-5--5-----------|-------------------5--|-5-------------|-----5-8-----o||
|-5--5-----------|-------------------5--|-5-------------|--------------||
|-3--3--5-5-x-7--|-7-5-7-x-7-7-5-7---3--|-3--5-5-x-7----|--------------||
|-3--3--5-5-x-7--|-7-5-7-x-7-7-5-7---3--|-3--5-5-x-7----|-------------o||
|-------3-3-x-5--|-5-3s5-x-5-5-3s5------|----3-3-x-5----|--------------||


 Interlude
   S  S  E  E  Q  E S  E.   W           S  S  E  E  Q  E S  E.   Q.    E H
|-------------------------|----------|-------------------------|--------------|
|-12-12-12-10-------------|----------|-12-12-12-10-------------|--------------|
|-------------12--9-------|-9--------|-------------12--9-------|-9----12-9----|
|-------------------9-12--|----------|-------------------9-12--|--------------|
|-------------------------|----------|-------------------------|--------------|
|-------------------------|----------|-------------------------|--------------|


   S  S  E  E  Q  E S  E.   W
|-------------------------|----------|
|-12-12-12-10-------------|----------|
|-------------12--9-------|-9--------|
|-------------------9-12--|----------|
|-------------------------|----------|
|-------------------------|----------|


   S  S  E  E  Q  E  S  E.    E  E  E  E  E  E  S  S  S  S
|----------------------10--|-12-12-12-12-12-12-12-12-12-12-|
|-12-12-12-10-------12-----|-12-12-12-12-12-12-12-12-12-12-|
|-------------12--9--------|-------------------------------|
|--------------------------|-------------------------------|
|--------------------------|-------------------------------|
|--------------------------|-------------------------------|

[ Tab from: http://www.guitartabs.cc/tabs/f/fastrain/feeling_tab.html ]
   Chorus
              PM           PM                      PM
    Q  Q  E E E Q    E S S E E E S S E Q    Q  E E E Q  E   E E E E E E
||--3--3-----------|-------------------3--|-3-------------|--------------|
||o-5--5-----------|-------------------5--|-5-------------|--------------|
||--5--5-----------|-------------------5--|-5-------------|-----------5--|
||--3--3--5-5-x-7--|-7-5-7-x-7-7-5-7---3--|-3--5-5-x-7----|-------5-7----|
||o-3--3--5-5-x-7--|-7-5-7-x-7-7-5-7---3--|-3--5-5-x-7----|---5-7--------|
||--------3-3-x-5--|-5-3s5-x-5-5-3s5------|----3-3-x-5--5-|-8------------|


            PM           PM                      PM
  Q  Q  E E E Q    E S S E E E S S E Q    Q  E E E Q  E   E E E E E E
|-3--3-----------|-------------------3--|-3-----------5-|-8-5-----8-5--||
|-5--5-----------|-------------------5--|-5-------------|-----5-8-----o||
|-5--5-----------|-------------------5--|-5-------------|--------------||
|-3--3--5-5-x-7--|-7-5-7-x-7-7-5-7---3--|-3--5-5-x-7----|--------------||
|-3--3--5-5-x-7--|-7-5-7-x-7-7-5-7---3--|-3--5-5-x-7----|-------------o||
|-------3-3-x-5--|-5-3s5-x-5-5-3s5------|----3-3-x-5----|--------------||


 Guitar Solo
   S  S  S  S  S  S  S  S  S  S  S  S  E  E
|-12-12-12-12-12-12-12-12-12-12-12-12-12-12-|
|-12-12-12-12-12-12-12-12-12-12-12-12-12-12-|
|-------------------------------------------|
|-------------------------------------------|
|-------------------------------------------|
|-------------------------------------------|


   S  S  S  S  S  S  S  S  S  S  S  S  E  E
|-12-12-12-12-12-12-12-12-12-12-12-12-12-12-|
|-12-12-12-12-12-12-12-12-12-12-12-12-12-12-|
|-------------------------------------------|
|-------------------------------------------|
|-------------------------------------------|
|-------------------------------------------|


  S S S S S S S S S S S S E E S E E E S S S S S S S E    E E  S  E S H
|-5-5-5-5-5-5-5-5-5-5-5-5-5-5-3-3-3-3-3-3-3-3-3-3-0-0-|-12---10-----------|
|-5-5-5-5-5-5-5-5-5-5-5-5-5-5-3-3-3-3-3-3-3-3-3-3-0-0-|-12---10-----------|
|-----------------------------------------------------|---------12---9----|
|-----------------------------------------------------|-------------------|
|-----------------------------------------------------|-------------------|
|-----------------------------------------------------|-------------------|


   S S S S  S S S S  S  E.  Q
|------------------------------|
|------------------------------|
|-12---9-----------------------|
|----------12---9--------------|
|-------------------12-10------|
|--------------------------12--|


   S  S  S  S E  S E  E.   Q     E E  E  E  E  E  Q
|-----------------------------|----------------------|
|-----------------------------|----------------------|
|------------------9-12b14-9--|----------------------|
|-------------9-12------------|-12-9-----------------|
|-------10-12-----------------|------12-10-----------|
|-10-12-----------------------|------------12-10-12--|


   Double chorus
              PM           PM                      PM
    Q  Q  E E E Q    E S S E E E S S E Q    Q  E E E Q  E   E E E E E E
||--3--3-----------|-------------------3--|-3-------------|--------------|
||o-5--5-----------|-------------------5--|-5-------------|--------------|
||--5--5-----------|-------------------5--|-5-------------|-----------5--|
||--3--3--5-5-x-7--|-7-5-7-x-7-7-5-7---3--|-3--5-5-x-7----|-------5-7----|
||o-3--3--5-5-x-7--|-7-5-7-x-7-7-5-7---3--|-3--5-5-x-7----|---5-7--------|
||--------3-3-x-5--|-5-3s5-x-5-5-3s5------|----3-3-x-5--5-|-8------------|


            PM           PM                      PM
  Q  Q  E E E Q    E S S E E E S S E Q    Q  E E E Q  E   E E E E E E  4x
|-3--3-----------|-------------------3--|-3-----------5-|-8-5-----8-5--||
|-5--5-----------|-------------------5--|-5-------------|-----5-8-----o||
|-5--5-----------|-------------------5--|-5-------------|--------------||
|-3--3--5-5-x-7--|-7-5-7-x-7-7-5-7---3--|-3--5-5-x-7----|--------------||
|-3--3--5-5-x-7--|-7-5-7-x-7-7-5-7---3--|-3--5-5-x-7----|-------------o||
|-------3-3-x-5--|-5-3s5-x-5-5-3s5------|----3-3-x-5----|--------------||


 Outro
  E S S Q  E S S S S E   E S S Q  E S S E E   W
|----------------------|--------------------|------|
|----------------------|--------------------|------|
|----------------------|--------------------|------|
|-------5--------------|-------5------------|------|
|---5h7----5-5-5-9-7-5-|---5h7----5-5-5-2-5-|-7----|
|-0--------------------|-0------------------|------|



Duration Legend
---------------
W - whole; H - half; Q - quarter; E - 8th; S - 16th; T - 32nd; X - 64th; a - acciaccatura
+ - note tied to previous; . - note dotted; .. - note double dotted
Uncapitalized letters represent notes that are staccato (1/2 duration)
Irregular groupings are notated above the duration line
Duration letters will always appear directly above the note/fret number it represents the
duration for.  Duration letters with no fret number below them represent rests.  Multi-
bar rests are notated in the form Wxn, where n is the number of bars to rest for.  Low
melody durations appear below the staff

Tablature Legend
----------------
 h   - hammer-on
 p   - pull-off
 b   - bend
 pb  - pre-bend
 r   - bend release (if no number after the r, then release immediately)
 /\  - slide into or out of (from/to "nowhere")
 s   - legato slide
 S   - shift slide
 - natural harmonic
[n]  - artificial harmonic
n(n) - tapped harmonic
 ~   - vibrato
 tr  - trill
 T   - tap
 TP  - trem. picking
 PM  - palm muting
\n/  - tremolo bar dip; n = amount to dip
 \n  - tremolo bar down
 n/  - tremolo bar up
/n\  - tremolo bar inverted dip
 =   - hold bend; also acts as connecting device for hammers/pulls
  - volume swell (louder/softer)
 x   - on rhythm slash represents muted slash
 o   - on rhythm slash represents single note slash

Misc Legend
-----------
 |  - bar
||  - double bar
||o - repeat start
o|| - repeat end
*|  - double bar (ending)
 :  - bar (freetime)
 $  - Segno
 &  - Coda
Tempo markers -  = BPM(8/16=s8/s16), where s8 = swing 8ths, s16 = swing 16ths

Comments