Faster Pussycat - Bathroom Wall Chords & Tabs

 

Bathroom Wall Chords & Tabs

Faster Pussycat Chords & Tabs

Version: 1 Type: Tab 0 ratings
1 star 2 stars 3 stars 4 stars 5 stars
comments

Bathroom Wall Tab

                                  Bathroom wall
                                by Faster Pussycat

Ok,in this tab i havent put out any correct timing,so listen to the song and find out 
timing yourself...But enjoy!

Intro/Main Riff:
|---------------------------------------------------|
|---------------------------------------------------|
|-14b--14b--14b---12--------------------------------|
|---------------------------------------------------|
|---------------------------------------------------|
|---------------------------------------------------|

Intro chords:
|---------------------------------------------------|
|---------------------------------------------------|
|-7-----5-------------------------------------------|
|-7-----5-----5-------------------------------------|
|-5-----3-----5-------------------------------------|
|-------------3-------------------------------------|
[ Tab from: http://www.guitartabs.cc/tabs/f/faster_pussycat/bathroom_wall_tab.html ]
Fill(this one im pretty unsure about):
|---------------------------------------------------|
|---------------------------------------------------|
|-15-14-12---12-14-15-14-12----12-12----------------|
|----------15---------------15-12-12----------------|
|---------------------------------------------------|
|---------------------------------------------------|

Verse(also played durin the fill above,listen to the song and
find out how to play):
|---------------------------------------------------|
|---------------------------------------------------|
|-7-7-7-7-7-7--5-5-5-5-5-5--------------------------|
|-7-7-7-7-7-7--5-5-5-5-5-5--5-5-5-5-5-5-------------|
|-5-5-5-5-5-5--3-3-3-3-3-3--5-5-5-5-5-5-------------|
|---------------------------3-3-3-3-3-3-------------|

Chorus:
|---------------------------|
|---------------------------|
|-4-----7-------------------|
|-4-----7-----5-------------|
|-2-----5-----5-------------|
|-------------3-------------|

Outro:
|---------------------------------------------------|
|---------------------------------------------------|
|-7---7---7-5-6-7-----------------------------------|
|-7---7---7-5-6-7-----------------------------------|
|-5---5---5-3-4-5-----------------------------------|
|---------------------------------------------------|

This may not be completely correct so if you find anything wrong just comment!
Thank you and enjoy!
Comments