Fastbreak - Behind Chords & Tabs

 

Behind Chords & Tabs

Fastbreak Chords & Tabs

Version: 1 Type: Bass Tab 0 ratings
1 star 2 stars 3 stars 4 stars 5 stars
comments

Behind Bass Tab

Song: Behind
Band: Fastbreak
Album: Don't Stop Trying
Tabbed By: Jim Keller

Intro: (X2)

G:---------------- 
D:----------------
A:----7--3-----5--
E:----------3-----

Verse

G:---------------------------------
D:--------------------------55-------
A:----777777-----55--777777----55----
E:-----------333--------------------


Chorus:
[ Tab from: http://www.guitartabs.cc/tabs/f/fastbreak/behind_btab.html ]
G:--------------------------------------------------------------
D:--------------------------------------------------------------
A:----77777--33333-----5-7--777---77777--33333--------7--7777---
E:-----------------333-------------------------555-7------------


G:---------------------------------------------------------------------
D:-------------------------------------55------------------------------
A:----7--3-----5---7--3-----5---777777----55---7--3----5---7--3----5---
E:----------3------------3---------------------------3-----------3-----




Comments